Sin tu amor (TAB) (2)


La introduccion original es con una quena,
pero si le pones feeling...sonara igual con la guitarra,
espero disfruten este tema por que a mi me rompe el 
corazon......mujeres  ¡que seriamos sin ellas!


Intro:

e:----------------------3----------|
B:------5555-3--5--5555---5--------|
G:---------------------------------|    
D:---------------------------------|
A:---------------------------------|
E:---------------------------------| 


e:------12--10-8888-7-8-8--10------|
B:---------------------------------|
G:----------------------------9----|    
D:---------------------------------|
A:---------------------------------|
E:---------------------------------| 


e:------12121212--10-12------------|
B:---------------------------------|
G:---------------------------------|    
D:---------------------------------|
A:---------------------------------|
E:---------------------------------| 

e:------12--10-8888-7-8-8--10-7h3--|
B:---------------------------------|
G:---------------------------------|    
D:---------------------------------|
A:---------------------------------|
E:---------------------------------| 

Shalalalalala shalalalalala  lalalalalalalala  lalala [bis] 
DO
       DO       
  Min LAm
       LAm       
  MIm
       MIm       
  Estos dias ya estas lejos de aquí no volveras  DO
       DO       
Min LAm
       LAm       
  MIm
       MIm       
  A
        A        
 mi por que te iras lejos de aquí me olvidaras LAm
       LAm       
  Min FA
       FA       
  SOL
       SOL       
  De seguro en tu ausencia extrañare tu presencia  DO
       DO       
Min LAm
       LAm       
  MIm
       MIm       
  Te buscare y gritare que con el tiempo te olvidare LAm
       LAm       
  Min FA
       FA       
  SOL
       SOL       
  Por que se que no volveras por que se que no estaras  DO
       DO       
Min Cuando te busque en mi soledad tu no estaras LAm
       LAm       
  Min Me dejaraaaaaaaas sin tu amooooooor FA
       FA       
   DO
       DO       
Sin tu amooooooor Sin tu amooooooor FA
       FA       
   DO
       DO       
Sin tu amooooooor es muy difícil vivir FA
       FA       
  REm
       REm       
  SOL
       SOL       
  Sin tu amor sin tu amor alguien tomara tu lugar Min LAm
       LAm       
  FA
       FA       
  MIm
       MIm       
  De seguro me hara olvidar FA
       FA       
  SOL
       SOL       
  (Repètir coro) 7h3 = jalar de LA
       LA       
 7 A
        A        
LA
       LA       
 3 los acordes se han movido al insertalo en la pagina de atame escuchen la cancion. cualquier duda critica sugerencia escribanme a mi correo. Su servidor E
        E        
fraín saludos a todas las fans de willian

William Luna

Este fichero es trabajo propio de su transcriptor y representa su interpretación personal de la canción. El material contenido en esta página es para exclusivo uso privado, por lo que se prohibe su reproducción o retransmisión, así como su uso para fines comerciales.