Linda Wawita (TAB) (3)


E--7-7-7-7-8-10-15-14-10-12-12-12-10-10-8----------|
B---------------------------13-13-12-12-10---------|
G--------------------------------------------------|
D--------------------------------------------------|
A--------------------------------------------------|
E--------------------------------------------------|

E-------------7-8-14-12-14-10-10-10-8--8--7---------|
B-10-10-10-10-----------------12-12-10-10-8---------
G---------------------------------------------------|
D---------------------------------------------------|
A---------------------------------------------------|
E---------------------------------------------------|
las dos de arriba se repite dos veces

E-12-10-8-7----10-8-7-8-10---12-10-8-7----10----10--------|
B-----------10-------------------------10----10----8p10-8-|
G---------------------------------------------------------|
D---------------------------------------------------------|
A---------------------------------------------------------|
E---------------------------------------------------------|

Al recordar tu carita bonita, cierro
G
        G        
  Am
       Am       
  los ojos y sueño que estas conmigo,  D
        D        
linda wawita.  G
        G        
Cuando alumbran las estrellas de noche G
        G        
  y recuerdo tu sonrisa de niña, siempre Am
       Am       
   D
        D        
suspiro por ti, linda wawita  G
        G        
No se si me recordaras, o por donde andarás, solo se que siempre seras Am
       Am       
   D
        D        
 G
        G        
Am
       Am       
   D
        D        
mi linda wawita  G
        G        


William Luna

Este fichero es trabajo propio de su transcriptor y representa su interpretación personal de la canción. El material contenido en esta página es para exclusivo uso privado, por lo que se prohibe su reproducción o retransmisión, así como su uso para fines comerciales.