Madre, rómpele la cara a ese cabrón (TAB)


Al principio el bajo hace asi :

G||--------------------------|--------------------------|
D||--------------------------|--------------------------|
A||-----------------------2--|-----------------------5--|
E||--0--0--0--0--0--0--0-----|--3--3--3--3--3--3--3-----|

-------------------------|-------------------------||
-------------------------|-------------------------||
--3----3--3--3--3--3--5--|--2----2--2--2--2--2--2--||
-------------------------|-------------------------||

El punteo de la guitarra ase azi :

E||----------------------------------|
B||--15----------15----------15------|
G||------14--14------14--14------14--|
D||----------------------------------|
A||----------------------------------|
E||----------------------------------|

----------------------------------|------------15----------------|
--15----------15------------------|--------15--------15----------|
------14--14------14--14--14--14--|--14------------------14--14--|
----------------------------------|------------------------------|
----------------------------------|------------------------------|
----------------------------------|------------------------------|

----------------------------|----------------------------------|
------------15--------------|--15----------15----------15------|
--------14--------14----14--|------14--14------14--14------14--|
--14------------------------|----------------------------------|
----------------------------|----------------------------------|
----------------------------|----------------------------------|

----------------------------------|------------15----------------|
--15----------15------------------|--------15--------15----------|
------14--14------14--14--14--14--|--14------------------14--14--|
----------------------------------|------------------------------|
----------------------------------|------------------------------|
----------------------------------|------------------------------|

----------------------------||
------------15--------------||
--------14--------14----14--||
--14------------------------||
----------------------------||
----------------------------||

E
        E        
   G
        G        
Veo tus ojos reprimidos, C
        C        
   B
        B        
necesitas desahogarte. Y tu cuerpo envejecido, porque siempre lo has tenido. De rodillas sobre el suelo, salpicada de lejía. Y esos niños engendrados, que te fueron devorando. Y maldices aquel día que aceptaste tu fracaso. Y ahora lloras en silencio, mientras esperas la muerte. Tus ideas se quedaron entre ruidos de cocina. Humillada y maltratada, entregada a su capricho. ¡Madre!, ¡madre! rómpele la cara a ese cabrón, ...¡nunca es tarde!.

 E
        E        
l Ultimo ke zierre

Este fichero es trabajo propio de su transcriptor y representa su interpretación personal de la canción. El material contenido en esta página es para exclusivo uso privado, por lo que se prohibe su reproducción o retransmisión, así como su uso para fines comerciales.



Buscar canción en YouTube Buscar cover en YouTube


Más canciones