Denuncia (TAB) (2)


1--------------------------/
2---------5------5---------/
3------6------6-----4---6--/
4---4------4---------------/       x2
5--------------------------/
6--------------------------/


1----------------------------/
2--------10-------10---------/
3-----11-------11-----9---11-/            x2
4---9-------9----------------/
5----------------------------/
6----------------------------/

Por ultimo

1--------5-----------/----------------------------
2----5s7----7—5------/-----------7----------------
3-----------------7--/-----7s9------9---7-------7-
4--------------------/---------------------9—7-----
5--------------------/----------------------------
6--------------------/--------------------------

1-----------------/-------------------------------
2---7s10---7----7-/--7s10---7---7-----------------
3-------------9---/-----------9----9---7----------
4-----------------/-----------------------9-------
5-----------------/-------------------------------
6-----------------/-------------------------------

 E
        E        
l Ultimo ke zierre

Este fichero es trabajo propio de su transcriptor y representa su interpretación personal de la canción. El material contenido en esta página es para exclusivo uso privado, por lo que se prohibe su reproducción o retransmisión, así como su uso para fines comerciales.



Buscar canción en YouTube Buscar cover en YouTube


Más canciones