El pibe de los astilleros (BAJ) (2)


esta es el tab perfecto del tema
sin errores ya que los tab anteriores contenian errores sobretodo
en el solo

intro
|----------------|----------------|----------------|----------------|
|----------------|----------------|----------------|----------------|
|7---7-----------|5---5-----------|7---7-----------|--5---(7)-------|
|--------3-3-3---|--------3-3-3---|--------3-3-3---|----5-----------|

|----------------|----------------|----------------|----------------|
|----------------|----------------|----------------|----------------|
|7---7-----------|5---5-----------|7---7-----------|-5---(7)--------|
|--------3-3-3---|--------3-3-3---|--------3-3-3---|---5------------|

Verso
|----------------|----------------|----------------|----------------|
|----------------|----------------|----------------|----------------|
|-7-7------------|3-3---5-5-5-----|-7-7/--10-10-10-|-3-3---5-5-5----|
|-----3-3-3------|----------------|----------------|----------------|

|----------------|----------------|----------------|
|----------------|----------------|----------------|
|-7-7------------|3-3---5-5-5-----|-7--5--3-(3)----|
|-----3-3-3------|----------------|----------------|

intro x 1
|----------------|----------------|----------------|----------------|
|----------------|----------------|----------------|----------------|
|7---7-----------|5---5-----------|7---7-----------|--5---(7)-------|
|--------3-3-3---|--------3-3-3---|--------3-3-3---|----5-----------|

Verso
|----------------|----------------|----------------|----------------|
|----------------|----------------|----------------|----------------|
|-7-7------------|3-3---5-5-5-----|-7-7/--10-10-10-|-3-3---5-5-5----|
|-----3-3-3------|----------------|----------------|----------------|

|----------------|----------------|----------------|
|----------------|----------------|----------------|
|-7-7------------|3-3---5-5-5-----|-7--5--3-(3)----|
|-----3-3-3------|----------------|----------------|

estribillo
|----------------|----------------|----------------|----------------|
|----------------|----------------|----------------|----------------|
|-(2)--3--0------|-(2)--3--0------|-(2)--3--0------|-2--3--5--------|
|----------------|----------------|----------------|----------------|

intro
|----------------|----------------|----------------|----------------|
|----------------|----------------|----------------|----------------|
|7---7-----------|5---5-----------|7---7-----------|--5---(7)-------|
|--------3-3-3---|--------3-3-3---|--------3-3-3---|----5-----------|

|----------------|----------------|----------------|----------------|
|----------------|----------------|----------------|----------------|
|7---7-----------|5---5-----------|7---7-----------|-5---(7)--------|
|--------3-3-3---|--------3-3-3---|--------3-3-3---|---5------------|

Verso
|----------------|----------------|----------------|----------------|
|----------------|----------------|----------------|----------------|
|-7-7------------|3-3---5-5-5-----|-7-7/--10-10-10-|-3-3---5-5-5----|
|-----3-3-3------|----------------|----------------|----------------|

|----------------|----------------|----------------|
|----------------|----------------|----------------|
|-7-7------------|3-3---5-5-5-----|-7--5--3-(3)----|
|-----3-3-3------|----------------|----------------|

solo
|----------------|----------------|x3
|----------------|----------------|
|--------5-5-5---|3---3---5-5-5---|
|3---3-----------|----------------|

|----------------|----------------|
|----------------|----------------|
|7---7---5-5-5---|3---3---3-3-3---|
|----------------|----------------|

Verso
|----------------|----------------|----------------|----------------|
|----------------|----------------|----------------|----------------|
|-7-7------------|3-3---5-5-5-----|-7-7/--10-10-10-|-3-3---5-5-5----|
|-----3-3-3------|----------------|----------------|----------------|

|----------------|----------------|----------------|
|----------------|----------------|----------------|
|-7-7------------|3-3---5-5-5-----|-7--5--3-(3)----|
|-----3-3-3------|----------------|----------------|

estribillo
|----------------|----------------|----------------|----------------|
|----------------|----------------|----------------|----------------|
|-(2)--3--0------|-(2)--3--0------|-(2)--3--0------|-2--3--5--------|
|----------------|----------------|----------------|----------------|

intro
|----------------|----------------|----------------|----------------|
|----------------|----------------|----------------|----------------|
|7---7-----------|5---5-----------|7---7-----------|--5---(7)-------|
|--------3-3-3---|--------3-3-3---|--------3-3-3---|----5-----------|

|----------------|----------------|----------------|----------------|
|----------------|----------------|----------------|----------------|
|7---7-----------|5---5-----------|7---7-----------|-5---(7)--------|
|--------3-3-3---|--------3-3-3---|--------3-3-3---|---5------------|

aca es cuando se queda la viola sola

final
|----------------|----------------|----------------|----------------|
|----------------|----------------|----------------|----------------|
|7---7-----------|5---5-----------|7---7-----------|--5--(3)--------|
|--------3-3-3---|--------3-3-3---|--------3-3-3---|----5-----------|

|---------------|
|---------------|
|--7------------|
|--0------------|


bueno ahi esta perfecto el bajo!..saludos

               ***NoE
        E        
 Te Am
       Am       
Oo!!***

Patricio Rey y sus Redonditos de Ricota

Este fichero es trabajo propio de su transcriptor y representa su interpretación personal de la canción. El material contenido en esta página es para exclusivo uso privado, por lo que se prohibe su reproducción o retransmisión, así como su uso para fines comerciales.



Buscar canción en YouTube Buscar cover en YouTube


Más canciones