Divina TV Fuhrer (BAJ) (2)


Intro 
G|----------| 
D|----------| 
A|-77777777-| 
E|----------| 
 
 |-------------------------------------|x2 
 |-------------------------------------| 
 |----------55555555----------55555555-| 
 |-55555555----------55555555----------| 
 
 |---------------------------------| 
 |---4-7-----4-7-------------------| 
 |-5-----5-5-----5---4-7-----4-7---| 
 |-----------------5-----5-5-----5-| 
 
 |--------------------------| 
 |---4-7-----4-7------------| 
 |-5-----5-5-----5-77777777-| 
 |--------------------------| 
 
Verso 
G|-------------------------------------|x2 
D|-------------------------------------| 
A|----------55555555----------55555555-| 
E|-55555555----------55555555----------| 
 
Coro 
G|---------------------------------| 
D|---4-7-----4-7-------------------| 
A|-5-----5-5-----5---4-7-----4-7---| 
E|-----------------5-----5-5-----5-| 
 
 |--------------------------| 
 |---4-7-----4-7------------| 
 |-5-----5-5-----5-77777777-| 
 |--------------------------| 
 
Verso 
G|-------------------------------------|x2 
D|-------------------------------------| 
A|----------55555555----------55555555-| 
E|-55555555----------55555555----------| 
 
Coro 
G|---------------------------------| 
D|---4-7-----4-7-------------------| 
A|-5-----5-5-----5---4-7-----4-7---| 
E|-----------------5-----5-5-----5-| 
 
 |--------------------------| 
 |---4-7-----4-7------------| 
 |-5-----5-5-----5-77777777-| 
 |--------------------------| 
 
Solo de saxo y guitarra 
G|-------------------|x4 
D|-------------------| 
A|----------55555555-| 
E|-55555555----------| 
    
 |---------------------------------| 
 |---4-7-----4-7-------------------| 
 |-5-----5-5-----5---4-7-----4-7---| 
 |-----------------5-----5-5-----5-| 
 
 |--------------------------| 
 |---4-7-----4-7------------| 
 |-5-----5-5-----5-77777777-| 
 |--------------------------| 
 
Verso 
G|-------------------------------------|x2 
D|-------------------------------------| 
A|----------55555555----------55555555-| 
E|-55555555----------55555555----------| 
 
Coro 
G|---------------------------------| 
D|---4-7-----4-7-------------------| 
A|-5-----5-5-----5---4-7-----4-7---| 
E|-----------------5-----5-5-----5-| 
 
 |--------------------------| 
 |---4-7-----4-7------------| 
 |-5-----5-5-----5-77777777-| 
 |--------------------------| 
 
Verso 
G|-------------------------------------|x2 
D|-------------------------------------| 
A|----------55555555----------55555555-| 
E|-55555555----------55555555----------| 
 
Coro 
G|---------------------------------| 
D|---4-7-----4-7-------------------| 
A|-5-----5-5-----5---4-7-----4-7---| 
E|-----------------5-----5-5-----5-| 
 
 |--------------------------| 
 |---4-7-----4-7------------| 
 |-5-----5-5-----5-77777777-| 
 |--------------------------| 
 
Solo de Saxo 
G|-------------------|x4 
D|-------------------| 
A|----------55555555-| 
E|-55555555----------| 
 
Final 
G|---------|x3 |------| 
D|---------|   |------| 
A|-----5-5-|   |-5-5--| 
E|-5-5-----|   |------| 
 
Escuchá la canción para saber el ritmo

Patricio Rey y sus Redonditos de Ricota

Este fichero es trabajo propio de su transcriptor y representa su interpretación personal de la canción. El material contenido en esta página es para exclusivo uso privado, por lo que se prohibe su reproducción o retransmisión, así como su uso para fines comerciales.



Buscar canción en YouTube Buscar cover en YouTube


Más canciones