Quo Vadis - Point Of No Return (TAB)


                      QUO VADIS - POINT OF
        F        
 NO RE
       RE       
TURN - Mute Requiem  F
        F        
rom "Day Into Night" Transcribed by: Justin Simms For Questions, C
        C        
omments, C
        C        
orrections, Requests please contact at reaperslayerized.com Check out The Reaper's Metal Tablature A
        A        
rchive at http://internettrash.com/users/thereaper/ . - palm mute / - slide up to - slide down to ~ - vibrato " - tremelo picking () - ghost note p - pull off h - hammer-on tr - trill notes fb - full bend (1step) < > - natural harmonic Quo Vadis - Point of No Return Tuned to E
        E        
(EADGBE) Riff A
        A        
|----------------------------------------| |----------------------------------------| |----------------------------------------|Both G
        G        
trs |-----4h5p4-------4h5p4------------------| |-----------7-----------7----------------| |-000---------000---------000-000--------| ... ... ... ... |----------------------------------------| |----------------------------------------| |----------------------------------------|Both G
        G        
trs |-----4h7p4------------------------------| |-----------6-----3h6p32---3p2p0--------| |-000---------000-----------------3p0----| ... ... Riff A
        A        
- 6x Small Note:  A
        A        
fter the singer screams, you can hear a very quiet third guitar harmonising in fifths. Fill |---| |---| |---|Both G
        G        
trs |---| |-2-| |-0-| Drum fill, then Riff B
        B        
1 |----------------------------------------| |----------------------------------------| |----------------------------------------|Both G
        G        
trs |--------9-------------------------------| |-10-777---777-10p9-9-999-9-999-9-9------| |----------------------------------------| ... ... ... ... . |----------------------------------------| |----------------------------------------| |----------------------------------------| |-7-----7-----4h5p4----------------------| |---555---555-------7--------------------| |---------------------000-0-000-000------| ... ... ... . ... ... Riff B
        B        
1 - 2x Riff B
        B        
2 |----------------------------------------| |----------------------------------------| |----------------------------------------|Both G
        G        
trs |-5-----5-----5h7h9-4-----4-----4h5h7----| |----------------------------------------| |---000---000---------000---000----------| ... ... ... ... |----------------------------------------| |----------------------------------------| |----------------------------------------|Both G
        G        
trs |-7-----7-----4h5p4--------------7h9-----| |---555---555-------7---------10---------| |---------------------000-0-0------------| ... ... ... . . Riff B
        B        
2 - 1x Riff B
        B        
3 |----------------------------------------| |----------------------------------------| |----------------------------------------|Both G
        G        
trs |-5-----5-----5h7h9-4-----4-----4h5h7----| |----------------------------------------| |---000---000---------000---000----------| | ... ... ... ... | |----------------------------------------| |----------------------------------------| |----------------------------------------|Gtr III |-9-----9-----5h7h9-7-----7-----4h5h7----| |----------------------------------------| |---000---000---------000---000----------| ... ... ... ... |----------------------------------------| |----------------------------------------| |----------------------------------------|Gtrs I |-7-----7-----7--------------------------| & II |---555---555----------------------------| |----------------------------------------| | ... ... | |----------------------------------------| |----------------------------------------| |----------------------------------------|Gtr II |-7-----7-----7--------------------------| |---555---555----------------------------| |----------------------------------------| ... ... |----------------------------------------| |----------------------------------------| |----------------------------------------|Gtrs I |-------4-----4---2-----4-----4----------| & II |-22222---222---2---222---222---2--------| |----------------------------------------| | ..... ... . ... ... . | |----------------------------------------| |----------------------------------------| |-------2-----2---0-----2-----2----------|Gtr III |----------------------------------------| |-22222---222---2---222---222---2--------| |----------------------------------------| ..... ... . ... ... . Riff B
        B        
3 - 1x Riff C
        C        
1 |----------------------------------------| |----------------------------------------| |----------------------------------------|Both G
        G        
trs |-5-----5-----4h5p4-5-----5-----4h5p4----| |----------------------------------------| |---000---000---------000---000----------| ... ... ... ... |----------------------------------------| |----------------------------------------| |-----------------------------------7----|Both G
        G        
trs |-7-----7-----7h10p9-4----5-7-4h5h7------| |----------------------------------------| |---000---000---------000----------------| ... ... ... |----------------------------------------| |----------------------------------------| |----------------------------------------|Both G
        G        
trs |-5-----5-----4h5p4-5-----5-----4h5p4----| |----------------------------------------| |---000---000---------000---000----------| ... ... ... ... |----------------------------------------| |----------------------------------------| |----------------------------------------|Both G
        G        
trs |-7-----7-----7---4-----5-----4----------| |----------------------------------------| |---000---000---0---000---000------------| ... ... . ... ... Riff C
        C        
1 - 1x Riff C
        C        
2 |----------------------------------------| |----------------------------------------| |----------------------------------------|Gtrs I |-5-----5-----4h5p4-5-----5-----4h5p4----| & II |----------------------------------------| |---0-0---0-0---------0-0---0-0----------| | . . . . . . . . | |----------------------------------------| |----------------------------------------| |----------------------------------------|Gtr III |----------------------------------------| |-2-----------------5--------------------| |-0-----------------3--------------------| |----------------------------------------| |----------------------------------------| |----------------------------------------|Gtrs I |-7-----7-----7----4-4-4-5-----4h5-------| & II |----------------------------------------| |---0-0---0-0---0------------------------| | . . . . . . . | |----------------------------------------| |----------------------------------------| |----------------------------------------|Gtr III |-7--------------------------------------| |-5----------------5-5-5-7-----5h7-------| |-5--------------------------------------| . . Riff C
        C        
2 - 1x Riff C
        C        
3 |----------------------------------------| |----------------------------------------| |----------------------------------------|Gtr I |-------5-----4h5-------------5h7--------| |-7---------------5-----5----------------| |---0-0---0-0-----3-3-3-3-3-3------------| | . . . . . . . . | |----------------------------------------| |----------------------------------------| |-------4-----2h4------------------------|Gtr II |-5---------------5-----5-----9p7--------| |----------------------------------------| |---0-0---0-0-------3-3---3-3------------| . . . . . . . . |----------------------------------------| |----------------------------------------| |----------------------------------------|Gtr I |-7-----7-----7---4-----5-----4----------| |---555---5-5---5---555---555------------| |----------------------------------------| | ... . . . ... ... | |----------------------------------------| |----------------------------------------| |----------------------------------------|Gtr II |-7-----7-----7---4-----5-----4----------| |---555---5-5---5---555---555------------| |----------------------------------------| ... . . . ... ... Riff D
        D        
1 |----------------------------------------| |----------------------------------------| |----------------------------------------|Both G
        G        
trs |----------------------------------------| |---------2-----------2-------2----------| |-000000000---000000000---00000----------| ........ ........ .... |----------------------------------------| |----------------------------------------| |----------------------------------------|Both G
        G        
trs |----------------------------------------| |-----3---------3-3-0h2p0----------------| |-00001---------1-1----------------------| .... Riff D
        D        
1 - 2x Riff D
        D        
2 |----------------------------------------| |----------------------------------------| |----------------------------------------|Both G
        G        
trs |---------5-----------5-------5----------| |---------7-----------7-------7----------| |-0000000-----0000000-----000------------| ....... ....... ... |----------------------------------------| |----------------------------------------| |----------------------------------------|Both G
        G        
trs |---------2---4-4-5h7-3~-----------------| |---------3---5-5------------------------| |-0000000--------------------------------| ....... |----------------------------------------| |----------------------------------------| |----------------------------------------|Both G
        G        
trs |---------5-----------5-------5----------| |---------7-----------7-------7----------| |-0000000-----0000000-----000------------| ....... ....... ... |----------------------------------------| |----------------------------------------| |----------------------------------------|Both G
        G        
trs |---------2---4-4-5/7-7------------------| |---------3---5-5-7/9-9------------------| |-0000000--------------------------------| ....... Riff D
        D        
2 - 1x Riff D
        D        
1 - 2x Riff D
        D        
2 - 1x Riff B
        B        
1 - 2x Riff B
        B        
2 - 1x Riff B
        B        
3 - 1x Riff A
        A        
1 - 1x Riff A
        A        
2 |----------------------------------------| |----------------------------------------| |----------------------------------------|Gtrs I |-----5p4-------5p4----------------------| & II |---------7---------7--------------------| |-000-------000-------000-000------------| | ... ... ... ... | |----------------------------------------| |----------------------------------------| |-----4p2-------4h5p4--------------------|Gtr III |---------5------------------------------| |----------------------------------------| |-000-------000-------000-000------------| ... ... ... ... |----------------------------------------| |----------------------------------------| |----------------------------------------|Gtrs I |-----7h4--------------------------------| & II |---------6-----3h6p32---3p2p0----------| |-000-------000-----------------3p0------| | ... ... | |----------------------------------------| |----------------------------------------| |-----5p2--------------------------------|Gtr III |---------4------------------------------| |---------------3h6p3/2---3p2p0----------| |-000-------000-----------------3p0------| ... ... Riff A
        A        
2 - 1x Riff A
        A        
1 - 1x Riff A
        A        
2 - 1x Riff C
        C        
4 |----------------------------------------| |----------------------------------------| |----------------------------------------|Both G
        G        
trs |----------------7----4-4-4-5---4h5------| |-2------5-------5----5-5-5-7---5h7------| |-0------3-------5-----------------------| . . . Riff C
        C        
4 - 1x Riff C
        C        
3 - 1x Riff C
        C        
4 - 1x Riff C
        C        
3 - 1x Fill |---| |---| |---|Both G
        G        
trs |-5-| |-7-| |---| Riff D
        D        
2 - 2x Fill |----------------------------------------| |----------------------------------------| |----------------------------------------|Both G
        G        
trs |----------------------------------------| |-7tr8-----------------------------------| |----------------------------------------| |----------------------------------------| |----------------------------------------| |----------------------------------------|Both G
        G        
trs |----------------------------------------| |-2-2-2-2-2-2-2-2-2-2-2-2-2-2-2-2--------| |-0-0-0-0-0-0-0-0-0-0-0-0-0-0-0-0--------| . . . . . . . . . . . . . . . . Riff E
        E        
|----------------------------------------| |----------------------------------------| |----------------------------------------|Both G
        G        
trs |-----------------5-------5-----4--------| |-2-2-2-2-2---------7--------------------| |-0-0-0-0-0-------------0-----0----------| . . . . |----------------------------------------| |----------------------------------------| |----------------------------------------|Both G
        G        
trs |---4h5p4---------4-------5-----4--------| |---------7-2---2---2---2-2---2-2--------| |-0--------------------------------------| . . . . |----------------------------------------| |----------------------------------------| |----------------------------------------|Both G
        G        
trs |---4h5----------------------------------| |-2--------------------------------------| |----------------------------------------| . Riff E
        E        
- 2x Riff F
        F        
|----------------------------------------| |----------------------------------------| |-----4-5-------4-5-------5-7-------5-7--|Both G
        G        
trs |----------------------------------------| |-0-0-------0-0-------0-0-------0-0------| |----------------------------------------| . . . . . . . . |----------------------------------------| |----------------------------------------| |-----5-4-------5-4-------4--------------|Both G
        G        
trs |---------------------------5------------| |-7-7-------7-7-------7-7----------------| |-0-0-------0-0-------0-0----------------| . . . . . . |----------------------------------------| |----------------------------------------| |-4---4-5--------------------------------|Both G
        G        
trs |---5------------------------------------| |----------------------------------------| |----------------------------------------| Riff F
        F        
- 2x (under solo) Riff G
        G        
1 |----------------------------------------| |----------------------------------------| |-2-4-5-2-4-5-2-4-5-2-4-5----------------|Gtrs I |----------------------------------------| & II |----------------------------------------| |----------------------------------------| | . . . . . . . . . . . . | |-12-------------------------------------| |----------------------------------------| |-9--------------------------------------|Gtr III |----------------------------------------| |----------------------------------------| |----------------------------------------| |----------------------------------------| |----------------------------------------| |-4-5-7-4-5-7-4-5-7-4-5-7----------------|Gtrs I |----------------------------------------| & II |----------------------------------------| |----------------------------------------| | . . . . . . . . . . . . | |----------------------------------------| |-10-------------------------------------| |-10-------------------------------------|Gtr III |----------------------------------------| |----------------------------------------| |----------------------------------------| |----------------------------------------| |----------------------------------------| |-0-2-4-0-2-4-0-2-4-0-2-4----------------|Gtrs I |----------------------------------------| & II |----------------------------------------| |----------------------------------------| | . . . . . . . . . . . . | |-10-------------------------------------| |----------------------------------------| |-7--------------------------------------|Gtr III |----------------------------------------| |----------------------------------------| |----------------------------------------| |----------------------------------------| |----------------------------------------| |-0-2-4-0-2-4-0-2-4-5-4-2----------------|Gtrs I |----------------------------------------| & II |----------------------------------------| |----------------------------------------| | . . . . . . . . . . . . | |----------------------------------------| |----------------------------------------| |-9--------------------------------------|Gtr III |----------------------------------------| |-7--------------------------------------| |----------------------------------------| |----------------------------------------| |----------------------------------------| |-2-4-5-2-4-5-2-4-5-2-4-5----------------|Gtrs I |----------------------------------------| & II |----------------------------------------| |----------------------------------------| | . . . . . . . . . . . . | |-12-------------------------------------| |----------------------------------------| |-9--------------------------------------|Gtr III |----------------------------------------| |----------------------------------------| |----------------------------------------| |----------------------------------------| |----------------------------------------| |-4-5-7-4-5-7-4-5-7-4-5-7----------------|Gtrs I |----------------------------------------| & II |----------------------------------------| |----------------------------------------| | . . . . . . . . . . . . | |----------------------------------------| |-10-------------------------------------| |----------------------------------------|Gtr III |-7--------------------------------------| |----------------------------------------| |----------------------------------------| |----------------------------------------| |----------------------------------------| |-0-2-4-0-2-4-0-2-4-0-2-4----------------|Gtrs I |----------------------------------------| & II |----------------------------------------| |----------------------------------------| | . . . . . . . . . . . . | |-10-------------------------------------| |----------------------------------------| |-7--------------------------------------|Gtr III |----------------------------------------| |----------------------------------------| |----------------------------------------| |----------------------------------------| |----------------------------------------| |-0-2-4-0-2-4-0-2-4-5-4-2----------------|Gtrs I |----------------------------------------| & II |----------------------------------------| |----------------------------------------| | . . . . . . . . . . . . | |-------------13---10--------------------| |----------------------------------------| |-------------10---7---------------------|Gtr III |----------------------------------------| |----------------------------------------| |----------------------------------------| Riff G
        G        
1 - 1x Riff G
        G        
2 |----------------------------------------| |----------------------------------------| |-2-4-5-2-4-5-2-4-5-2-4-5----------------|Gtr I |----------------------------------------| |----------------------------------------| |----------------------------------------| | . . . . . . . . . . . . | |----------------------------------------| |-1-3-5-1-3-5-1-3-5-1-3-5----------------| |----------------------------------------|Gtr II |----------------------------------------| |----------------------------------------| |----------------------------------------| | . . . . . . . . . . . . | |-12-------------------------------------| |----------------------------------------| |-9--------------------------------------|Gtr III |----------------------------------------| |----------------------------------------| |----------------------------------------| |----------------------------------------| |----------------------------------------| |-4-5-7-4-5-7-4-5-7-4-5-7----------------|Gtr I |----------------------------------------| |----------------------------------------| |----------------------------------------| | . . . . . . . . . . . . | |----------------------------------------| |-3-5-6-3-5-6-3-5-6-3-5-6----------------| |----------------------------------------|Gtr II |----------------------------------------| |----------------------------------------| |----------------------------------------| | . . . . . . . . . . . . | |----------------------------------------| |-10-------------------------------------| |-10-------------------------------------|Gtr III |----------------------------------------| |----------------------------------------| |----------------------------------------| |----------------------------------------| |----------------------------------------| |-0-2-4-0-2-4-0-2-4-0-2-4----------------|Gtr I |----------------------------------------| |----------------------------------------| |----------------------------------------| | . . . . . . . . . . . . | |----------------------------------------| |----------------------------------------| |-4-5-7-4-5-7-4-5-7-4-5-7----------------|Gtr II |----------------------------------------| |----------------------------------------| |----------------------------------------| | . . . . . . . . . . . . | |-10-------------------------------------| |----------------------------------------| |-7--------------------------------------|Gtr III |----------------------------------------| |----------------------------------------| |----------------------------------------| |----------------------------------------| |----------------------------------------| |-0-2-4-0-2-4-0-2-4-5-4-2----------------|Gtr I |----------------------------------------| |----------------------------------------| |----------------------------------------| | . . . . . . . . . . . . | |----------------------------------------| |-------------------5--------------------| |-4-5-7-4-5-7-4-5-7---7-5----------------|Gtr II |----------------------------------------| |----------------------------------------| |----------------------------------------| | . . . . . . . . . . . . | |----------------------------------------| |----------------------------------------| |-9--------------------------------------|Gtr III |----------------------------------------| |-7--------------------------------------| |----------------------------------------| Fade out with Riff G
        G        
2

Este fichero es trabajo propio de su transcriptor y representa su interpretación personal de la canción. El material contenido en esta página es para exclusivo uso privado, por lo que se prohibe su reproducción o retransmisión, así como su uso para fines comerciales.