Quinn Peck - What I Could Have Said (TAB)


#----------------------------------PLEASE
        E        
 NOTE---------------------------------# #This file is the author's own work and represents their interpretation of the # #song. You may only use this file for private study, scholarship, or research. # #------------------------------------------------------------------------------## WHAT I C
        C        
OULD
        D        
 HAVE
        E        
 SAID
        D        
   A
        A        
s recorded by Quinn Peck Music by Quinn Peck Arranged by guitarist5240 Transcribed by guitarist5240 Gtr I (E
        E        
 A D
        D        
 G
        G        
 B
        B        
 E
        E        
) - 'Untitled' Gtr II (E
        E        
 A D
        D        
 G
        G        
 B
        B        
 E
        E        
) - 'Untitled' Gtr III (E
        E        
 A D
        D        
 G
        G        
 B
        B        
 E
        E        
) - 'Untitled' Gtr IV (E
        E        
 A D
        D        
 G
        G        
 B
        B        
 E
        E        
) - 'Untitled' Intro Q=144 C#m
       C#m       
   A
        A        
5 4/4  G
        G        
tr I  E
        E        
 E
        E        
 E
        E        
 E
        E        
 E
        E        
 E
        E        
 E
        E        
 E
        E        
+E
        E        
  E
        E        
 E
        E        
 E
        E        
 E
        E        
 E
        E        
 E
        E        
 E
        E        
 E
        E        
 E
        E        
 E
        E        
 E
        E        
 E
        E        
 E
        E        
 E
        E        
 E
        E        
+E
        E        
  E
        E        
 E
        E        
 E
        E        
 E
        E        
 E
        E        
 E
        E        
 E
        E        
|-----------------|-------------------|-----------------|---------------------| |-----------------|-------------------|-----------------|---------------------| |-----------------|-------------------|-----------------|---------------------| |---2---2-4-2---2-|-(2)---2---4p2---2-|---2---2-4-2---2-|-(2)---2---4p2-------| |-4---4-------4---|-----4---4-----4---|-0---0-------0---|-----0---0-----0-2S==| |-----------------|-------------------|-----------------|---------------------| C#m
       C#m       
   A
        A        
5  E
        E        
5/B
        B        
   E
        E        
 E
        E        
 E
        E        
 E
        E        
 E
        E        
 E
        E        
 E
        E        
 E
        E        
+E
        E        
  E
        E        
 E
        E        
 E
        E        
 E
        E        
 E
        E        
 E
        E        
 E
        E        
 E
        E        
 E
        E        
 E
        E        
 E
        E        
 E
        E        
 E
        E        
 E
        E        
 E
        E        
+E
        E        
  E
        E        
 E
        E        
 E
        E        
 E
        E        
 E
        E        
 E
        E        
 E
        E        
|-----------------|-------------------|-----------------|--------------------| |-----------------|-------------------|-----------------|--------------------| |-----------------|-------------------|-----------------|--------------------| |---2---2-4-2---2-|-(2)---2---4p2---2-|---2---2-4-2---2-|-(2)---2---4p2---2--| |-4---4-------4---|-----4---4-----4---|-0---0-------0---|-----2---2-----2----| |-----------------|-------------------|-----------------|--------------------| C#m
       C#m       
   E
        E        
 E
        E        
 E
        E        
 E
        E        
 E
        E        
 E
        E        
 E
        E        
 E
        E        
+E
        E        
  E
        E        
 E
        E        
 E
        E        
 E
        E        
 E
        E        
 E
        E        
 E
        E        
|-------------------|-------------------| |-------------------|-------------------| |-------------------|-------------------| |---2---2--4--2---2-|-(2)---2---4p2---2-| |-4---4---------4---|-----4---4-----4---| |-------------------|-------------------| | | G
        G        
tr II | H +E
        E        
  Q  E
        E        
+H.  E
        E        
 E
        E        
|-------------------|-------------------| |-----------------0-|-(0)---------------| |-------------------|-------------------| |-------------2-----|-----------------2-| |-4-------(4)-------|---------------4---| |-------------------|-------------------|  A
        A        
5  E
        E        
 E
        E        
 E
        E        
 E
        E        
 E
        E        
 E
        E        
 E
        E        
 E
        E        
+E
        E        
  E
        E        
 E
        E        
 E
        E        
 E
        E        
 E
        E        
 E
        E        
 E
        E        
|-------------------|---------------------| |-------------------|---------------------| |-------------------|---------------------| |---2---2--4--2---2-|-(2)---2---4p2-------| |-0---0---------0---|-----0---0-----0-2S==| |-------------------|---------------------| | | H +E
        E        
  Q  E
        E        
+H. Q |-------------------|---------------------| |-----------------0-|-(0)-----------------| |-------------------|---------------------| |-------------2-----|---------------------| |-4-------(4)-------|---------------0-----| |-------------------|---------------------| C#m
       C#m       
   E
        E        
 E
        E        
 E
        E        
 E
        E        
 E
        E        
 E
        E        
 E
        E        
 E
        E        
+E
        E        
  E
        E        
 E
        E        
 E
        E        
 E
        E        
 E
        E        
 E
        E        
 E
        E        
|-------------------|-------------------| |-------------------|-------------------| |-------------------|-------------------| |---2---2--4--2---2-|-(2)---2---4p2---2-| |-4---4---------4---|-----4---4-----4---| |-------------------|-------------------| | | H +E
        E        
  Q  E
        E        
+H.  E
        E        
 E
        E        
|-------------------|-------------------| |-----------------0-|-(0)---------------| |-------------------|-------------------| |-------------2-----|-----------------2-| |-4-------(4)-------|---------------4---| |-------------------|-------------------|  A
        A        
5  E
        E        
5/B
        B        
   E
        E        
 E
        E        
 E
        E        
 E
        E        
 E
        E        
 E
        E        
 E
        E        
 E
        E        
+E
        E        
  E
        E        
 E
        E        
 E
        E        
 E
        E        
 E
        E        
 E
        E        
 E
        E        
|-------------------|---------------------| |-------------------|---------------------| |-------------------|---------------------| |---2---2--4--2---2-|-(2)---2---4p==2---2-| |-0---0---------0---|-----2---2-------2---| |-------------------|---------------------| | | H +E
        E        
  Q  E
        E        
+Q.  E
        E        
S S E
        E        
 E
        E        
 E
        E        
|-------------------|---------------------| |-----------------0-|-(0)-----------------| |-------------------|---------------------| |-------------2-----|---------2-2-4-2-----| |-4-------(4)-------|-----------------4-2-| |-------------------|---------------------| Verse C#m
       C#m       
   A
        A        
5  E
        E        
 E
        E        
 E
        E        
 E
        E        
 E
        E        
 E
        E        
 E
        E        
 E
        E        
+E
        E        
  E
        E        
 E
        E        
 E
        E        
 E
        E        
 E
        E        
 E
        E        
 E
        E        
 E
        E        
 E
        E        
 E
        E        
 E
        E        
 E
        E        
 E
        E        
 E
        E        
 E
        E        
+E
        E        
  E
        E        
 E
        E        
 E
        E        
 E
        E        
 E
        E        
 E
        E        
 E
        E        
|-----------------|-------------------|-----------------|---------------------| |-----------------|-------------------|-----------------|---------------------| |-----------------|-------------------|-----------------|---------------------| |---2---2-4-2---2-|-(2)---2---4p2---2-|---2---2-4-2---2-|-(2)---2---4p2-------| |-4---4-------4---|-----4---4-----4---|-0---0-------0---|-----0---0-----0-2S==| |-----------------|-------------------|-----------------|---------------------| | | E
        E        
 E
        E        
 E
        E        
 E
        E        
 E
        E        
 E
        E        
 E
        E        
 E
        E        
+E
        E        
  E
        E        
 E
        E        
 E
        E        
 E
        E        
 E
        E        
 E
        E        
 E
        E        
 E
        E        
 E
        E        
 E
        E        
 E
        E        
 E
        E        
 E
        E        
 E
        E        
 E
        E        
+E
        E        
  E
        E        
 E
        E        
 E
        E        
 E
        E        
 E
        E        
 E
        E        
 E
        E        
|-----------------|-------------------|-----------------|---------------------| |---------------0-|-(0)---------------|---------------0-|-(0)-----------------| |-----------------|-------------------|-----------------|---------------------| |---2-4-2---2-----|-------2---4p2---2-|---2-4-2---2-----|-------2---4p2---2---| |-4-------4---4---|-----4---4-----4---|-4-------4---4---|-----4---4-----4-----| |-----------------|-------------------|-----------------|---------------------| C#m
       C#m       
   A
        A        
5  E
        E        
5/B
        B        
   E
        E        
 E
        E        
 E
        E        
 E
        E        
 E
        E        
 E
        E        
 E
        E        
 E
        E        
+E
        E        
  E
        E        
 E
        E        
 E
        E        
 E
        E        
 E
        E        
 E
        E        
 E
        E        
 E
        E        
 E
        E        
 E
        E        
 E
        E        
 E
        E        
 E
        E        
 E
        E        
 E
        E        
+E
        E        
  E
        E        
 E
        E        
 E
        E        
 E
        E        
 E
        E        
 E
        E        
 E
        E        
|-----------------|-------------------|-----------------|--------------------| |-----------------|-------------------|-----------------|--------------------| |-----------------|-------------------|-----------------|--------------------| |---2---2-4-2---2-|-(2)---2---4p2---2-|---2---2-4-2---2-|-(2)---2---4p2---2--| |-4---4-------4---|-----4---4-----4---|-0---0-------0---|-----2---2-----2----| |-----------------|-------------------|-----------------|--------------------| | | E
        E        
 E
        E        
 E
        E        
 E
        E        
 E
        E        
 E
        E        
 E
        E        
 E
        E        
+E
        E        
  E
        E        
 E
        E        
 E
        E        
 E
        E        
 E
        E        
 E
        E        
 E
        E        
 E
        E        
 E
        E        
 E
        E        
 E
        E        
 E
        E        
 E
        E        
 E
        E        
 E
        E        
+E
        E        
  E
        E        
 E
        E        
 E
        E        
 E
        E        
 E
        E        
 E
        E        
 E
        E        
|-----------------|-------------------|-----------------|--------------------| |---------------0-|-(0)---------------|---------------0-|-(0)----------------| |-----------------|-------------------|-----------------|--------------------| |---2-4-2---2-----|-------2---4p2---2-|---2-4-2---2-----|-------2---4p2---2--| |-4-------4---4---|-----4---4-----4---|-4-------4---4---|-----2---2-----2----| |-----------------|-------------------|-----------------|--------------------| C#m
       C#m       
   A
        A        
5  E
        E        
 E
        E        
 E
        E        
 E
        E        
 E
        E        
 E
        E        
 E
        E        
 E
        E        
+E
        E        
  E
        E        
 E
        E        
 E
        E        
 E
        E        
 E
        E        
 E
        E        
 E
        E        
 E
        E        
 E
        E        
 E
        E        
 E
        E        
 E
        E        
 E
        E        
 E
        E        
 E
        E        
+E
        E        
  E
        E        
 E
        E        
 E
        E        
 E
        E        
 E
        E        
 E
        E        
 E
        E        
|-----------------|-------------------|-----------------|---------------------| |-----------------|-------------------|-----------------|---------------------| |-----------------|-------------------|-----------------|---------------------| |---2---2-4-2---2-|-(2)---2---4p2---2-|---2---2-4-2---2-|-(2)---2---4p2-------| |-4---4-------4---|-----4---4-----4---|-0---0-------0---|-----0---0-----0-2S==| |-----------------|-------------------|-----------------|---------------------| | | E
        E        
 E
        E        
 E
        E        
 E
        E        
 E
        E        
 E
        E        
 E
        E        
 E
        E        
+E
        E        
  E
        E        
 E
        E        
 E
        E        
 E
        E        
 E
        E        
 E
        E        
 E
        E        
 E
        E        
 E
        E        
 E
        E        
 E
        E        
 E
        E        
 E
        E        
 E
        E        
 E
        E        
+E
        E        
  E
        E        
 E
        E        
 E
        E        
 E
        E        
 E
        E        
 E
        E        
 E
        E        
|---------------0-|-(0)---------------|---------------0-|-(0)-----------------| |-----------0---0-|-(0)---------------|-----------0---0-|-(0)-----------------| |-----------------|-------------------|-----------------|---------------------| |---2-4-2---------|-------2---4p2---2-|---2-4-2---------|-------2---4p2-------| |-4-------4---4---|-----4---4-----4---|-0-------0---0---|-----0---0-----0-2---| |-----------------|-------------------|-----------------|---------------------| C#m
       C#m       
   E
        E        
 E
        E        
 E
        E        
 E
        E        
 E
        E        
 E
        E        
 E
        E        
 E
        E        
+E
        E        
  E
        E        
 E
        E        
 E
        E        
 E
        E        
 E
        E        
 E
        E        
 E
        E        
|-----------------|-------------------| |-----------------|-------------------| |-----------------|-------------------| |---2---2-4-2---2-|-(2)---2---4p2---2-| |-4---4-------4---|-----4---4-----4---| |-----------------|-------------------| | | E
        E        
 E
        E        
 E
        E        
 E
        E        
 E
        E        
 E
        E        
 E
        E        
 E
        E        
+E
        E        
  E
        E        
 E
        E        
 E
        E        
 E
        E        
 E
        E        
 E
        E        
 E
        E        
|---------------0-|-(0)---------------| |-----------0---0-|-(0)---------------| |-----------------|-------------------| |---2-4-2---------|-------2---4p2---2-| |-4-------4---4---|-----4---4-----4---| |-----------------|-------------------|  A
        A        
5  E
        E        
5/B
        B        
   E
        E        
 E
        E        
 E
        E        
 E
        E        
 E
        E        
 E
        E        
 E
        E        
 E
        E        
+E
        E        
   E
        E        
 E
        E        
 E
        E        
S S E
        E        
 E
        E        
 E
        E        
|-----------------|-----------------------| |-----------------|-----------------------| |-----------------|-------------1-2-1-----| |---2---2-4-2---2-|-(2)-----2-2-------2---| |-0---0-------0---|------2--------------2-| |-----------------|-----------------------| | | E
        E        
 E
        E        
 E
        E        
 E
        E        
 E
        E        
 E
        E        
 E
        E        
 E
        E        
+Q +E
        E        
   E
        E        
S S E
        E        
 E
        E        
 E
        E        
|-----------0---0-|-(0)-(0)---------------| |-----------0---0-|-(0)-(0)---------------| |-----------------|-----------------------| |---2-4-2---------|-------------2-4-2-----| |-0-------0---0---|-----------2-------4-2-| |-----------------|-----------------------|  C
        C        
horus  A
        A        
Q  E
        E        
 E
        E        
 E
        E        
 E
        E        
 E
        E        
 E
        E        
+E
        E        
  E
        E        
 E
        E        
 E
        E        
+E
        E        
  E
        E        
 E
        E        
 E
        E        
||----------------0-|-(0)-----------------| ||o---------0-------|---------4-(4)-------| ||------------------|---------------------| ||------2-----2-----|-----2---------2---2-| ||o--0----0-----0---|-------0---------0---| ||------------------|---------------------| | | W +W ||--^0--------------|-(0)-----------------| ||o-^2--------------|-(2)-----------------| ||--^2--------------|-(2)-----------------| ||--^2--------------|-(2)-----------------| ||o-^0--------------|-(0)-----------------| ||------------------|---------------------| | |  G
        G        
tr III | W +H.  E
        E        
 E
        E        
||---0--------------|-(0)-------------0-0-| ||o--2--------------|-(2)-------------2-4-| ||------------------|---------------------| ||------------------|---------------------| ||o-----------------|---------------------| ||------------------|---------------------| C#m
       C#m       
  Q  E
        E        
 E
        E        
 E
        E        
 E
        E        
 E
        E        
 E
        E        
+E
        E        
  E
        E        
 E
        E        
 E
        E        
+E
        E        
  E
        E        
 E
        E        
 E
        E        
|---------------0-|-(0)------------------------| |---------0-------|-----------4---(4)----------| |-----------------|----------------------------| |-----2-----2-----|-----2-------------2------2-| |--4----4-----4---|--------4---------------4---| |-----------------|----------------------------| | | W +W |-^0--------------|-(0)------------------------| |-^5--------------|-(5)------------------------| |-^6--------------|-(6)------------------------| |-^6--------------|-(6)------------------------| |-^4--------------|-(4)------------------------| |-----------------|----------------------------| | | W +Q +E
        E        
  S S  E
        E        
.  E
        E        
.  E
        E        
|--0--------------|-(0)---(0)-0-0--0----0----0-| |-/5--------------|-(5)---(5)-4-4-/5----4----0-| |-----------------|----------------------------| |-----------------|----------------------------| |-----------------|----------------------------| |-----------------|----------------------------|  A
        A        
Q  E
        E        
 E
        E        
 E
        E        
 E
        E        
 E
        E        
 E
        E        
+E
        E        
  E
        E        
 E
        E        
 E
        E        
+E
        E        
  E
        E        
 E
        E        
 E
        E        
|---------------0-|-(0)-----------------| |---------0-------|---------4-(4)-------| |-----------------|---------------------| |-----2-----2-----|-----2---------2---2-| |--0----0-----0---|-------0---------0---| |-----------------|---------------------| | | W +W |-^0--------------|-(0)-----------------| |-^2--------------|-(2)-----------------| |-^2--------------|-(2)-----------------| |-^2--------------|-(2)-----------------| |-^0--------------|-(0)-----------------| |-----------------|---------------------| | | W +H.  E
        E        
 E
        E        
|--0--------------|-(0)-------------0-0-| |--2--------------|-(2)-------------4-5-| |-----------------|---------------------| |-----------------|---------------------| |-----------------|---------------------| |-----------------|---------------------| Esus
       Esus      
2/B
        B        
  Q  E
        E        
 E
        E        
 E
        E        
 E
        E        
 E
        E        
 E
        E        
+E
        E        
  E
        E        
 E
        E        
 E
        E        
+E
        E        
  E
        E        
 E
        E        
 E
        E        
|--------------------0-|-(0)-------2-(2)------------|| |------------0---------|---------------------------o|| |----------------------|----------------------------|| |-------4-------4------|-----4-----------4------4---|| |----2----2-------2----|--------2-------------2----o|| |----------------------|----------------------------|| | | W +W |---^0-----------------|-(0)------------------------|| |---^0-----------------|-(0)-----------------------o|| |---^4-----------------|-(4)------------------------|| |---^4-----------------|-(4)------------------------|| |---^2-----------------|-(2)-----------------------o|| |----------------------|----------------------------|| | | a H +Q.  E
        E        
+Q +E
        E        
  E
        E        
 E
        E        
.  E
        E        
.  E
        E        
|----0------(0)------0-|-(0)---(0)----5----4--------|| |-5s=7------(7)-----5-|-(5)---(5)-5------------5--o|| |----------------------|----------------------------|| |----------------------|----------------------------|| |----------------------|---------------------------o|| |----------------------|----------------------------||  B
        B        
ridge C#m
       C#m       
   E
        E        
 E
        E        
 E
        E        
 E
        E        
 E
        E        
 E
        E        
 E
        E        
 E
        E        
+E
        E        
  E
        E        
 E
        E        
 E
        E        
 E
        E        
 E
        E        
 E
        E        
 E
        E        
|-------------------|-------------------| |-------------------|-------------------| |-------------------|-------------------| |---2---2--4--2---2-|-(2)---2---4p2---2-| |-4---4---------4---|-----4---4-----4---| |-------------------|-------------------| | | H +E
        E        
  Q  E
        E        
+H.  E
        E        
 E
        E        
|-------------------|-------------------| |-----------------0-|-(0)---------------| |-------------------|-------------------| |-------------2-----|-----------------2-| |-4-------(4)-------|---------------4---| |-------------------|-------------------| | | H +E
        E        
  Q  E
        E        
+H.  E
        E        
 E
        E        
|-------------------|-------------------| |-----------------0-|-(0)---------------| |-------------------|-------------------| |-------------2-----|-----------------2-| |-4-------(4)-------|---------------4---| |-------------------|-------------------|  A
        A        
5  E
        E        
 E
        E        
 E
        E        
 E
        E        
 E
        E        
 E
        E        
 E
        E        
 E
        E        
+E
        E        
  E
        E        
 E
        E        
 E
        E        
 E
        E        
 E
        E        
 E
        E        
 E
        E        
|-------------------|---------------------| |-------------------|---------------------| |-------------------|---------------------| |---2---2--4--2---2-|-(2)---2---4p2-------| |-0---0---------0---|-----0---0-----0-2S==| |-------------------|---------------------| | | H +E
        E        
  Q  E
        E        
+H. Q |-------------------|---------------------| |-----------------0-|-(0)-----------------| |-------------------|---------------------| |-------------2-----|---------------------| |-4-------(4)-------|---------------0-----| |-------------------|---------------------| | | H +E
        E        
  Q  E
        E        
+H. Q |-------------------|---------------------| |-----------------0-|-(0)-----------------| |-------------------|---------------------| |-------------2-----|---------------------| |-0-------(0)-------|---------------0-----| |-------------------|---------------------| C#m
       C#m       
   E
        E        
 E
        E        
 E
        E        
 E
        E        
 E
        E        
 E
        E        
 E
        E        
 E
        E        
+E
        E        
  E
        E        
 E
        E        
 E
        E        
 E
        E        
 E
        E        
 E
        E        
 E
        E        
|-------------------|-------------------| |-------------------|-------------------| |-------------------|-------------------| |---2---2--4--2---2-|-(2)---2---4p2---2-| |-4---4---------4---|-----4---4-----4---| |-------------------|-------------------| | | H +E
        E        
  Q  E
        E        
+H.  E
        E        
 E
        E        
|-------------------|-------------------| |-----------------0-|-(0)---------------| |-------------------|-------------------| |-------------2-----|-----------------2-| |-4-------(4)-------|---------------4---| |-------------------|-------------------| | | H +E
        E        
  Q  E
        E        
+H.  E
        E        
 E
        E        
|-------------------|-------------------| |-----------------0-|-(0)---------------| |-------------------|-------------------| |-------------2-----|-----------------2-| |-4-------(4)-------|---------------4---| |-------------------|-------------------|  A
        A        
5  E
        E        
5/B
        B        
   E
        E        
 E
        E        
 E
        E        
 E
        E        
 E
        E        
 E
        E        
 E
        E        
 E
        E        
+E
        E        
  E
        E        
 E
        E        
 E
        E        
 E
        E        
 E
        E        
 E
        E        
 E
        E        
|-------------------|----------------------------| |-------------------|----------------------------| |-------------------|----------------------------| |---2---2--4--2---2-|-(2)---2-------4p2-------2--| |-0---0---------0---|-----2-------2---------2----| |-------------------|----------------------------| | | |-3-| |-3-| | H +E
        E        
  Q  E
        E        
+E
        E        
  E
        E        
S S S E
        E        
 E
        E        
S S S E
        E        
 E
        E        
|-------------------|----------------------------| |-----------------0-|-(0)------------------------| |-------------------|-----2-1-2-1----------------| |-------------2-----|-------------2-4-2-4-2------| |-4-------(4)-------|-----------------------4-2--| |-------------------|----------------------------| | | |-3-| |-3-| | H +E
        E        
  Q  E
        E        
+E
        E        
  E
        E        
S S S E
        E        
 E
        E        
S S S E
        E        
 E
        E        
|-----------------0-|-(0)------------------------| |-------------------|-----2-0-2-0----------------| |-------------------|-------------1-2-1-2-1------| |-------------2-----|-----------------------2----| |-0-------(0)-------|-------------------------2--| |-------------------|----------------------------| Verse C#m
       C#m       
   E
        E        
 E
        E        
 E
        E        
 E
        E        
 E
        E        
 E
        E        
 E
        E        
 E
        E        
+E
        E        
   E
        E        
 E
        E        
 E
        E        
 E
        E        
 E
        E        
 E
        E        
 E
        E        
|---------------------|----------------------| |---------------------|----------------------| |---------------------|----------------------| |---2-----2-4--2----2-|-(2)----2----4p2----2-| |-4----4----------4---|------4----4-----4----| |---------------------|----------------------| | | E
        E        
 E
        E        
 E
        E        
 E
        E        
 E
        E        
 E
        E        
 E
        E        
 E
        E        
+E
        E        
   E
        E        
 E
        E        
 E
        E        
 E
        E        
 E
        E        
 E
        E        
 E
        E        
|---------------------|----------------------| |-------------------0-|-(0)------------------| |---------------------|---------------9------| |---2--4--2----2------|--------9----9---9----| |-4---------4-----4---|-----11---11-------11-| |---------------------|----------------------| | | E
        E        
 E
        E        
+E
        E        
  E
        E        
 E
        E        
+E
        E        
  E
        E        
 E
        E        
+E
        E        
   E
        E        
 E
        E        
 E
        E        
 E
        E        
 E
        E        
 E
        E        
 E
        E        
|---------------------|---------------0------| |-----------0-(0)-----|--------0----0---0----| |---------------------|----------------------| |---2-(2)-----------2-|-(2)----------------2-| |-4-------4-------4---|------4----4----------| |---------------------|----------------------|  A
        A        
5  E
        E        
 E
        E        
 E
        E        
 E
        E        
 E
        E        
 E
        E        
 E
        E        
 E
        E        
+E
        E        
   E
        E        
 E
        E        
 E
        E        
 E
        E        
 E
        E        
 E
        E        
 E
        E        
|---------------------|------------------------| |---------------------|------------------------| |---------------------|------------------------| |---2-----2-4--2----2-|-(2)----2----4p2--------| |-0----0----------0---|------0----0-----0--2S==| |---------------------|------------------------| | | E
        E        
 E
        E        
 E
        E        
 E
        E        
 E
        E        
 E
        E        
 E
        E        
 E
        E        
+E
        E        
   E
        E        
 E
        E        
 E
        E        
 E
        E        
 E
        E        
 E
        E        
 E
        E        
|---------------------|------------------------| |-------------------0-|-(0)--------------------| |---------------------|---------------9--------| |---2--4--2----2------|--------9----9---9------| |-0---------0-----0---|-----11---11-------11---| |---------------------|------------------------| | | E
        E        
 E
        E        
+E
        E        
  E
        E        
 E
        E        
+E
        E        
  E
        E        
 E
        E        
+E
        E        
   E
        E        
 E
        E        
 E
        E        
 E
        E        
 E
        E        
 E
        E        
 E
        E        
|---------------------|---------------0--------| |-----------0-(0)-----|--------0----0---0------| |---------------------|------------------------| |---2-(2)-----------2-|-(2)----------------2---| |-0-------0-------0---|------0----0------------| |---------------------|------------------------| C#m
       C#m       
   E
        E        
 E
        E        
 E
        E        
 E
        E        
 E
        E        
 E
        E        
 E
        E        
 E
        E        
+E
        E        
   E
        E        
 E
        E        
 E
        E        
 E
        E        
 E
        E        
 E
        E        
 E
        E        
|---------------------|-----------------------| |---------------------|-----------------------| |---------------------|-----------------------| |---2-----2-4--2----2-|-(2)----2-----4p2----2-| |-4----4----------4---|------4----4------4----| |---------------------|-----------------------| | | E
        E        
 E
        E        
 E
        E        
 E
        E        
 E
        E        
 E
        E        
 E
        E        
 E
        E        
+E
        E        
   E
        E        
 E
        E        
 E
        E        
 E
        E        
 E
        E        
 E
        E        
 E
        E        
|---------------------|-----------------------| |-------------------0-|-(0)-------------------| |---------------------|-------------11p9------| |---2--4--2----2------|--------9---------9----| |-4---------4-----4---|-----11---11--------11-| |---------------------|-----------------------| | | E
        E        
 E
        E        
+E
        E        
  E
        E        
 E
        E        
+E
        E        
  E
        E        
 E
        E        
+E
        E        
   E
        E        
 E
        E        
 E
        E        
 E
        E        
 E
        E        
 E
        E        
 E
        E        
|---------------------|----------------0------| |-----------0-(0)-----|--------0-----0---0----| |---------------------|-----------------------| |---2-(2)-----------2-|-(2)-----------------2-| |-4-------4-------4---|------4----4-----------| |---------------------|-----------------------|  A
        A        
5  E
        E        
5/B
        B        
   E
        E        
 E
        E        
 E
        E        
 E
        E        
 E
        E        
 E
        E        
 E
        E        
 E
        E        
+E
        E        
   E
        E        
 E
        E        
 E
        E        
 E
        E        
 E
        E        
 E
        E        
 E
        E        
|---------------------|------------------------| |---------------------|------------------------| |---------------------|------------------------| |---2-----2-4--2----2-|-(2)----2-----4p2----2--| |-0----0----------0---|------2----2-------2----| |---------------------|------------------------| | | E
        E        
 E
        E        
 E
        E        
 E
        E        
 E
        E        
 E
        E        
 E
        E        
 E
        E        
+E
        E        
   E
        E        
 E
        E        
 E
        E        
 E
        E        
 E
        E        
 E
        E        
 E
        E        
|---------------------|------------------------| |-------------------0-|-(0)---------10p9-------| |---------------------|--------9---------11-9--| |---2--4--2----2------|-----11---11------------| |-4---------4-----4---|------------------------| |---------------------|------------------------| | | E
        E        
 E
        E        
+E
        E        
  E
        E        
 E
        E        
+E
        E        
  E
        E        
 E
        E        
+E
        E        
   E
        E        
 E
        E        
 E
        E        
 E
        E        
 E
        E        
 E
        E        
 E
        E        
|---------------------|--------------2-0----0--| |-----------0-(0)-----|--------0----------0----| |---------------------|------------------------| |---2-(2)-----------2-|-(2)--------------------| |-0-------0-------0---|------2----2------------| |---------------------|------------------------| C#m
       C#m       
   A
        A        
5  E
        E        
 E
        E        
 E
        E        
 E
        E        
 E
        E        
 E
        E        
 E
        E        
 E
        E        
+E
        E        
  E
        E        
 E
        E        
 E
        E        
 E
        E        
 E
        E        
 E
        E        
 E
        E        
 E
        E        
 E
        E        
 E
        E        
 E
        E        
 E
        E        
 E
        E        
 E
        E        
 E
        E        
+E
        E        
  E
        E        
 E
        E        
 E
        E        
 E
        E        
 E
        E        
 E
        E        
 E
        E        
|-----------------|-------------------|-----------------|---------------------| |-----------------|-------------------|-----------------|---------------------| |-----------------|-------------------|-----------------|---------------------| |---2---2-4-2---2-|-(2)---2---4p2---2-|---2---2-4-2---2-|-(2)---2---4p2-------| |-4---4-------4---|-----4---4-----4---|-0---0-------0---|-----0---0-----0-2S==| |-----------------|-------------------|-----------------|---------------------| | | E
        E        
 E
        E        
 E
        E        
 E
        E        
 E
        E        
 E
        E        
 E
        E        
 E
        E        
+E
        E        
  E
        E        
 E
        E        
 E
        E        
 E
        E        
 E
        E        
 E
        E        
 E
        E        
 E
        E        
 E
        E        
 E
        E        
 E
        E        
 E
        E        
 E
        E        
 E
        E        
 E
        E        
+E
        E        
  E
        E        
 E
        E        
 E
        E        
 E
        E        
 E
        E        
 E
        E        
 E
        E        
|---------------7-|-(7)---------------|---------------7-|-(7)-----------------| |---5-7-5---5-----|-------5---7p5---5-|---5-7-5---5-----|-------5---7p5-------| |-6-------6---6---|-----6---6-----6---|-----------------|-----------------4S==| |-----------------|-------------------|-7-------7---7---|-----7---7-----7-----| |-----------------|-------------------|-----------------|---------------------| |-----------------|-------------------|-----------------|---------------------| | | E
        E        
 E
        E        
 E
        E        
 E
        E        
 E
        E        
 E
        E        
 E
        E        
 E
        E        
 E
        E        
 E
        E        
 E
        E        
 E
        E        
 E
        E        
 E
        E        
 E
        E        
 E
        E        
 E
        E        
 E
        E        
 E
        E        
 E
        E        
 E
        E        
 E
        E        
 E
        E        
 E
        E        
 E
        E        
 E
        E        
 E
        E        
 E
        E        
 E
        E        
 E
        E        
 E
        E        
 E
        E        
|-----0-----0-----|--0------0-----0---|---0-----0-----0-|-------0-----0-------| |---2-----2-----2-|-------2-----2-----|-4-----4-----4---|-----5-----5-----5---| |-4-----4-----4---|-----4-----4-----4-|-----4-----4-----|--4------4-----4-----| |-----------------|-------------------|-----------------|---------------------| |-----------------|-------------------|-----------------|---------------------| |-----------------|-------------------|-----------------|---------------------| C#m
       C#m       
   A
        A        
5  E
        E        
5/B
        B        
   E
        E        
 E
        E        
 E
        E        
 E
        E        
 E
        E        
 E
        E        
 E
        E        
 E
        E        
+E
        E        
  E
        E        
 E
        E        
 E
        E        
 E
        E        
 E
        E        
 E
        E        
 E
        E        
 E
        E        
 E
        E        
 E
        E        
 E
        E        
 E
        E        
 E
        E        
 E
        E        
 E
        E        
+E
        E        
  E
        E        
 E
        E        
 E
        E        
S S E
        E        
 E
        E        
 E
        E        
|-----------------|-------------------|-----------------|---------------------| |-----------------|-------------------|-----------------|---------------------| |-----------------|-------------------|-----------------|-----------1-2-1-----| |---2---2-4-2---2-|-(2)---2---4p2---2-|---2---2-4-2---2-|-(2)---2-2-------2---| |-4---4-------4---|-----4---4-----4---|-0---0-------0---|-----2-------------2-| |-----------------|-------------------|-----------------|---------------------| | | E
        E        
 E
        E        
 E
        E        
 E
        E        
 E
        E        
 E
        E        
 E
        E        
 E
        E        
+E
        E        
  E
        E        
 E
        E        
 E
        E        
 E
        E        
 E
        E        
 E
        E        
 E
        E        
 E
        E        
 E
        E        
 E
        E        
 E
        E        
 E
        E        
 E
        E        
 E
        E        
 E
        E        
+E
        E        
  E
        E        
 E
        E        
 E
        E        
S S E
        E        
 E
        E        
 E
        E        
|---------------7-|-(7)---------------|---------------7-|-(7)-------4-5-4-0---| |---5-7-5---5-----|-------5---7p5---5-|---5-7-5---5-----|-------5-----------0-| |-6-------6---6---|-----6---6-----6---|-----------------|-----4---4-----------| |-----------------|-------------------|-7-------7---7---|---------------------| |-----------------|-------------------|-----------------|---------------------| |-----------------|-------------------|-----------------|---------------------| | | E
        E        
 E
        E        
 E
        E        
 E
        E        
 E
        E        
 E
        E        
 E
        E        
 E
        E        
 E
        E        
 E
        E        
 E
        E        
 E
        E        
 E
        E        
 E
        E        
 E
        E        
 E
        E        
 E
        E        
 E
        E        
 E
        E        
 E
        E        
 E
        E        
 E
        E        
 E
        E        
 E
        E        
 E
        E        
 E
        E        
 E
        E        
 E
        E        
 E
        E        
 E
        E        
 E
        E        
 E
        E        
|-----0-----0-----|--0------0-----0---|---0-----0-----0-|-------0-------0-----| |---2-----2-----2-|-------2-----2-----|-4-----4-----4---|-----5-----5-------5-| |-4-----4-----4---|-----4-----4-----4-|-----4-----4-----|--4------4-------4---| |-----------------|-------------------|-----------------|---------------------| |-----------------|-------------------|-----------------|---------------------| |-----------------|-------------------|-----------------|---------------------|  C
        C        
horus  A
        A        
Q  E
        E        
 E
        E        
 E
        E        
 E
        E        
 E
        E        
 E
        E        
+E
        E        
  E
        E        
 E
        E        
 E
        E        
+E
        E        
  E
        E        
 E
        E        
 E
        E        
||-----------------0-|-(0)-----------------| ||o----------0-------|---------4-(4)-------| ||-------------------|---------------------| ||-------2-----2-----|-----2---------2---2-| ||o--0-----0-----0---|-------0---------0---| ||-------------------|---------------------| | | W +W ||--^0---------------|-(0)-----------------| ||o-^2---------------|-(2)-----------------| ||--^2---------------|-(2)-----------------| ||--^2---------------|-(2)-----------------| ||o-^0---------------|-(0)-----------------| ||-------------------|---------------------| | |  E
        E        
 E
        E        
 E
        E        
 E
        E        
 E
        E        
 E
        E        
 E
        E        
 E
        E        
 E
        E        
 E
        E        
 E
        E        
 E
        E        
 E
        E        
 E
        E        
 E
        E        
 E
        E        
||-------0-----0-----|--4------4-------4---| ||o----2-----2-----2-|-------2-------2---2-| ||---4-----4-----4---|-----4------4--------| ||-------------------|---------------------| ||o------------------|---------------------| ||-------------------|---------------------| C#m
       C#m       
  Q  E
        E        
 E
        E        
 E
        E        
 E
        E        
 E
        E        
 E
        E        
+E
        E        
  E
        E        
 E
        E        
 E
        E        
+E
        E        
  E
        E        
 E
        E        
 E
        E        
|----------------0-|-(0)-----------------| |----------0-------|---------4-(4)-------| |------------------|---------------------| |------2-----2-----|-----2---------2---2-| |--4-----4-----4---|-------4---------4---| |------------------|---------------------| | | W +W |-^0---------------|-(0)-----------------| |-^5---------------|-(5)-----------------| |-^6---------------|-(6)-----------------| |-^6---------------|-(6)-----------------| |-^4---------------|-(4)-----------------| |------------------|---------------------| | |  E
        E        
 E
        E        
 E
        E        
 E
        E        
 E
        E        
 E
        E        
 E
        E        
 E
        E        
 E
        E        
 E
        E        
 E
        E        
 E
        E        
 E
        E        
 E
        E        
 E
        E        
 E
        E        
|------0-----0-----|--2------4-------2---| |----4-----4-----4-|-------4-------4---4-| |--4-----4-----4---|-----4------4--------| |------------------|---------------------| |------------------|---------------------| |------------------|---------------------|  A
        A        
Q  E
        E        
 E
        E        
 E
        E        
 E
        E        
 E
        E        
 E
        E        
+E
        E        
  E
        E        
 E
        E        
 E
        E        
+E
        E        
  E
        E        
 E
        E        
 E
        E        
|----------------0-|-(0)-----------------| |----------0-------|---------4-(4)-------| |------------------|---------------------| |------2-----2-----|-----2---------2---2-| |--0-----0-----0---|-------0---------0---| |------------------|---------------------| | | W +W |-^0---------------|-(0)-----------------| |-^2---------------|-(2)-----------------| |-^2---------------|-(2)-----------------| |-^2---------------|-(2)-----------------| |-^0---------------|-(0)-----------------| |------------------|---------------------| | |  E
        E        
 E
        E        
 E
        E        
 E
        E        
 E
        E        
 E
        E        
 E
        E        
 E
        E        
 E
        E        
 E
        E        
 E
        E        
 E
        E        
 E
        E        
 E
        E        
 E
        E        
 E
        E        
|------0-----0-----|--4------4-------4---| |----2-----2-----2-|-------2-------2---2-| |--4-----4-----4---|-----4------4--------| |------------------|---------------------| |------------------|---------------------| |------------------|---------------------| Esus
       Esus      
2/B
        B        
  Q  E
        E        
 E
        E        
 E
        E        
 E
        E        
 E
        E        
 E
        E        
+E
        E        
  E
        E        
 E
        E        
 E
        E        
+E
        E        
  E
        E        
 E
        E        
 E
        E        
|----------------0-|-(0)-----2-(2)---------|| |----------0-------|----------------------o|| |------------------|-----------------------|| |------4-----4-----|-----4---------4---4---|| |--2-----2-----2---|-------2---------2----o|| |------------------|-----------------------|| | | W +W |-^0---------------|-(0)-------------------|| |-^0---------------|-(0)------------------o|| |-^4---------------|-(4)-------------------|| |-^4---------------|-(4)-------------------|| |-^2---------------|-(2)------------------o|| |------------------|-----------------------|| | |  E
        E        
 E
        E        
 E
        E        
 E
        E        
 E
        E        
 E
        E        
 E
        E        
 E
        E        
 E
        E        
 E
        E        
 E
        E        
 E
        E        
 E
        E        
 E
        E        
 E
        E        
 E
        E        
|------0-----0-----|--4------5-------7-----|| |----4-----4-----4-|-------4-------4---4--o|| |--4-----4-----4---|-----4------4----------|| |------------------|-----------------------|| |------------------|----------------------o|| |------------------|-----------------------||  B
        B        
ridge C#m
       C#m       
   E
        E        
 E
        E        
 E
        E        
 E
        E        
 E
        E        
 E
        E        
 E
        E        
 E
        E        
+E
        E        
  E
        E        
 E
        E        
 E
        E        
 E
        E        
 E
        E        
 E
        E        
 E
        E        
|-------------------|-------------------| |-------------------|-------------------| |-------------------|-------------------| |---2---2--4--2---2-|-(2)---2---4p2---2-| |-4---4---------4---|-----4---4-----4---| |-------------------|-------------------| | | H +E
        E        
  Q  E
        E        
+H.  E
        E        
 E
        E        
|-------------------|-------------------| |-----------------0-|-(0)---------------| |-------------------|-------------------| |-------------2-----|-----------------2-| |-4-------(4)-------|---------------4---| |-------------------|-------------------| | | H +E
        E        
  Q  E
        E        
+H.  E
        E        
 E
        E        
|-------------------|-------------------| |-----------------0-|-(0)---------------| |-------------------|-------------------| |-------------2-----|-----------------2-| |-4-------(4)-------|---------------4---| |-------------------|-------------------|  A
        A        
5  E
        E        
 E
        E        
 E
        E        
 E
        E        
 E
        E        
 E
        E        
 E
        E        
 E
        E        
+E
        E        
  E
        E        
 E
        E        
 E
        E        
 E
        E        
 E
        E        
 E
        E        
 E
        E        
|-------------------|---------------------| |-------------------|---------------------| |-------------------|---------------------| |---2---2--4--2---2-|-(2)---2---4p2-------| |-0---0---------0---|-----0---0-----0-2S==| |-------------------|---------------------| | | H +E
        E        
  Q  E
        E        
+H. Q |-------------------|---------------------| |-----------------0-|-(0)-----------------| |-------------------|---------------------| |-------------2-----|---------------------| |-4-------(4)-------|---------------0-----| |-------------------|---------------------| | | H +E
        E        
  Q  E
        E        
+H. Q |-------------------|---------------------| |-----------------0-|-(0)-----------------| |-------------------|---------------------| |-------------2-----|---------------------| |-0-------(0)-------|---------------0-----| |-------------------|---------------------| C#m
       C#m       
   E
        E        
 E
        E        
 E
        E        
 E
        E        
 E
        E        
 E
        E        
 E
        E        
 E
        E        
+E
        E        
  E
        E        
 E
        E        
 E
        E        
 E
        E        
 E
        E        
 E
        E        
 E
        E        
|-------------------|-------------------| |-------------------|-------------------| |-------------------|-------------------| |---2---2--4--2---2-|-(2)---2---4p2---2-| |-4---4---------4---|-----4---4-----4---| |-------------------|-------------------| | | H +E
        E        
  Q  E
        E        
+H.  E
        E        
 E
        E        
|-------------------|-------------------| |-----------------0-|-(0)---------------| |-------------------|-------------------| |-------------2-----|-----------------2-| |-4-------(4)-------|---------------4---| |-------------------|-------------------| | | H +E
        E        
  Q  E
        E        
+H.  E
        E        
 E
        E        
|-------------------|-------------------| |-----------------0-|-(0)---------------| |-------------------|-------------------| |-------------2-----|-----------------2-| |-4-------(4)-------|---------------4---| |-------------------|-------------------|  A
        A        
5  E
        E        
5/B
        B        
   E
        E        
 E
        E        
 E
        E        
 E
        E        
 E
        E        
 E
        E        
 E
        E        
 E
        E        
+E
        E        
  E
        E        
 E
        E        
 E
        E        
 E
        E        
 E
        E        
 E
        E        
 E
        E        
|-------------------|----------------------------| |-------------------|----------------------------| |-------------------|----------------------------| |---2---2--4--2---2-|-(2)---2-------4p2-------2--| |-0---0---------0---|-----2-------2---------2----| |-------------------|----------------------------| | | |-3-| |-3-| | H +E
        E        
  Q  E
        E        
+E
        E        
  E
        E        
S S S E
        E        
 E
        E        
S S S E
        E        
 E
        E        
|-------------------|----------------------------| |-----------------0-|-(0)------------------------| |-------------------|-----2-1-2-1----------------| |-------------2-----|-------------2-4-2-4-2------| |-4-------(4)-------|-----------------------4-2--| |-------------------|----------------------------| | |  G
        G        
tr IV | |-3-| |-3-| | H +E
        E        
  Q  E
        E        
+E
        E        
  E
        E        
S S S E
        E        
 E
        E        
S S S E
        E        
 E
        E        
|-------------------|-----9-7-9-7-4-5-4-5-4------| |-----------------0-|-(0)-------------------5----| |-------------------|-------------------------4--| |-------------2-----|----------------------------| |-0-------(0)-------|----------------------------| |-------------------|----------------------------|  G
        G        
uitar Solo C#m
       C#m       
   E
        E        
 E
        E        
 E
        E        
 E
        E        
 E
        E        
 E
        E        
 E
        E        
 E
        E        
+E
        E        
  E
        E        
 E
        E        
 E
        E        
 E
        E        
 E
        E        
 E
        E        
 E
        E        
|-----------------|----------------------| |-----------------|----------------------| |-----------------|----------------------| |---2---2-4-2---2-|-(2)---2----4p==2---2-| |-4---4-------4---|-----4---4--------4---| |-----------------|----------------------| | | E
        E        
 E
        E        
 E
        E        
 E
        E        
 E
        E        
 E
        E        
 E
        E        
 E
        E        
+E
        E        
  E
        E        
 E
        E        
 E
        E        
 E
        E        
 E
        E        
 E
        E        
 E
        E        
|-----------------|----------------------| |---------------0-|-(0)------------------| |-----------------|----------------------| |---2-4-2---2-----|-------2----4p==2---2-| |-4-------4---4---|-----4---4--------4---| |-----------------|----------------------| | | ~~~~~~~~~~~~~~~~~~~~~~~~~~~~~~~~ | W +H +E
        E        
   E
        E        
 E
        E        
 E
        E        
|-----------------|--------------------4-| |-5---------------|-(5)-------(5)----5---| |-----------------|---------------/6-----| |-----------------|----------------------| |-----------------|----------------------| |-----------------|----------------------|  A
        A        
5  E
        E        
 E
        E        
 E
        E        
 E
        E        
 E
        E        
 E
        E        
 E
        E        
 E
        E        
+E
        E        
  E
        E        
 E
        E        
 E
        E        
 E
        E        
 E
        E        
 E
        E        
 E
        E        
|---------------------------|--------------------------| |---------------------------|--------------------------| |---------------------------|--------------------------| |----2------2-4--2------2---|-(2)---2----4p=2----------| |-0-------0-----------0-----|-----0---0-------0-----2S=| |---------------------------|--------------------------| | | E
        E        
 E
        E        
 E
        E        
 E
        E        
 E
        E        
 E
        E        
 E
        E        
 E
        E        
+E
        E        
  E
        E        
 E
        E        
 E
        E        
 E
        E        
 E
        E        
 E
        E        
 E
        E        
|---------------------------|--------------------------| |-----------------------0---|-(0)----------------------| |---------------------------|--------------------------| |----2----4-2----2----------|-------2----4p=2-------2--| |-4-----------4-------4-----|-----4---4-------4--------| |---------------------------|--------------------------| | | ~~~~~~~~~~~~~ | |-3-| | E
        E        
.  E
        E        
.  E
        E        
 E
        E        
.  E
        E        
. S S H +E
        E        
  E
        E        
S S S E
        E        
|-5----4------4-------------|---------------5-4-5-4----| |-----------5------5--------|-----------------------5--| |-----------------------4h6p|==4--------(4)------------| |---------------------------|--------------------------| |---------------------------|--------------------------| |---------------------------|--------------------------| C#m
       C#m       
   E
        E        
 E
        E        
 E
        E        
 E
        E        
 E
        E        
 E
        E        
 E
        E        
 E
        E        
+E
        E        
  E
        E        
 E
        E        
 E
        E        
 E
        E        
 E
        E        
 E
        E        
 E
        E        
|------------------|---------------------| |------------------|---------------------| |------------------|---------------------| |----2---2-4-2---2-|-(2)-----2---4p2---2-| |-4----4-------4---|-----4-----4-----4---| |------------------|---------------------| | | E
        E        
 E
        E        
 E
        E        
 E
        E        
 E
        E        
 E
        E        
 E
        E        
 E
        E        
+E
        E        
  E
        E        
 E
        E        
 E
        E        
 E
        E        
 E
        E        
 E
        E        
 E
        E        
|------------------|---------------------| |----------------0-|-(0)-----------------| |------------------|---------------------| |----2-4-2---2-----|---------2---4p2---2-| |-4--------4---4---|-----4-----4-----4---| |------------------|---------------------| | | ~~~~~~~~~~~~~~ | Q.  E
        E        
H +E
        E        
  S S E
        E        
 E
        E        
 E
        E        
 E
        E        
 E
        E        
 E
        E        
|------------------|---------------------| |-7------5-5-------|-(5)-------5-7-5---5-| |------------------|-----6p4-6-------6---| |------------------|---------------------| |------------------|---------------------| |------------------|---------------------|  A
        A        
5  E
        E        
5/B
        B        
   E
        E        
 E
        E        
 E
        E        
 E
        E        
 E
        E        
 E
        E        
 E
        E        
 E
        E        
+E
        E        
  E
        E        
 E
        E        
 E
        E        
 E
        E        
 E
        E        
 E
        E        
 E
        E        
|-------------------|-------------------| |-------------------|-------------------| |-------------------|-------------------| |---2---2--4--2---2-|-(2)---2---4p2---2-| |-0---0---------0---|-----2---2-----2---| |-------------------|-------------------| | | E
        E        
 E
        E        
 E
        E        
 E
        E        
 E
        E        
 E
        E        
 E
        E        
 E
        E        
+E
        E        
  E
        E        
 E
        E        
 E
        E        
 E
        E        
 E
        E        
 E
        E        
 E
        E        
|-------------------|-------------------| |-----------------0-|-(0)---------------| |-------------------|-------------------| |---2-4-2-----2-----|-------2---4p2---2-| |-4--------4----4---|-----2---2-----2---| |-------------------|-------------------| | | Q  E
        E        
 E
        E        
+E
        E        
  E
        E        
Q +W |-7-----5-(5)---4---|-(4)---------------| |-----5-------5-----|-------------------| |-------------------|-------------------| |-------------------|-------------------| |-------------------|-------------------| |-------------------|-------------------| C#m
       C#m       
   E
        E        
 E
        E        
 E
        E        
 E
        E        
 E
        E        
 E
        E        
 E
        E        
 E
        E        
+E
        E        
  E
        E        
 E
        E        
 E
        E        
 E
        E        
 E
        E        
 E
        E        
 E
        E        
|---------------------|-----------------------| |---------------------|-----------------------| |---------------------|-----------------------| |---2---2--4--2-----2-|-(2)---2----4p=2---2---| |-4---4----------4----|-----4---4-------4-----| |---------------------|-----------------------| | | E
        E        
 E
        E        
 E
        E        
 E
        E        
 E
        E        
 E
        E        
 E
        E        
 E
        E        
+E
        E        
  E
        E        
 E
        E        
 E
        E        
 E
        E        
 E
        E        
 E
        E        
 E
        E        
|---------------------|-----------------------| |-------------------0-|-(0)-------------------| |---------------------|-----------------------| |---2-4-2-----2-------|-------2----4p=2---2---| |-4--------4-----4----|-----4---4-------4-----| |---------------------|-----------------------| | | ~ | H +E
        E        
  E
        E        
+E
        E        
  e H +E
        E        
  E
        E        
 E
        E        
S S |-9-------(9)---------|-----------------9---9-| |-------------9-(9)---|-------------------9---| |-------------------9-|--9--------(9)-9-------| |---------------------|-----------------------| |---------------------|-----------------------| |---------------------|-----------------------|  A
        A        
5  E
        E        
 E
        E        
 E
        E        
 E
        E        
 E
        E        
 E
        E        
 E
        E        
 E
        E        
+E
        E        
  E
        E        
 E
        E        
 E
        E        
 E
        E        
 E
        E        
 E
        E        
 E
        E        
|---------------------------|----------------------------| |---------------------------|----------------------------| |---------------------------|----------------------------| |-----2------2--4--2------2-|--(2)---2-----4p=2----------| |--0-------0------------0---|------0---0--------0--2S====| |---------------------------|----------------------------| | |  E
        E        
 E
        E        
 E
        E        
 E
        E        
 E
        E        
 E
        E        
 E
        E        
 E
        E        
+E
        E        
  E
        E        
 E
        E        
 E
        E        
 E
        E        
 E
        E        
 E
        E        
 E
        E        
|---------------------------|----------------------------| |-------------------------0-|--(0)-----------------------| |---------------------------|----------------------------| |-----2----4-2-----2--------|--------2-----4p=2----2-----| |--4------------4-------4---|------2---2--------2--------| |---------------------------|----------------------------| | | ~~~~~~~~~~~~~~ |  E
        E        
.  E
        E        
.  E
        E        
 E
        E        
.  E
        E        
.  E
        E        
H +Q. S S |-11----9------12----9------|-/14--------(14)-----14-14--| |------------9------------9-|----------------------------| |---------------------------|----------------------------| |---------------------------|----------------------------| |---------------------------|----------------------------| |---------------------------|----------------------------| C#m
       C#m       
   E
        E        
 E
        E        
 E
        E        
 E
        E        
 E
        E        
 E
        E        
 E
        E        
 E
        E        
+E
        E        
  E
        E        
 E
        E        
 E
        E        
 E
        E        
 E
        E        
 E
        E        
 E
        E        
|---------------------------|------------------------------| |---------------------------|------------------------------| |---------------------------|------------------------------| |----2---2---4---2--------2-|----(2)-------2------4p=2---2-| |--4---4------------4-------|--------4--------4--------4---| |---------------------------|------------------------------| | |  E
        E        
 E
        E        
 E
        E        
 E
        E        
 E
        E        
 E
        E        
 E
        E        
 E
        E        
+E
        E        
  E
        E        
 E
        E        
 E
        E        
 E
        E        
 E
        E        
 E
        E        
 E
        E        
|---------------------------|------------------------------| |----------------0--------0-|----(0)-----------------------| |---------------------------|------------------------------| |----2-4-2------------------|--------------2------4p=2---2-| |--4---------4------4-------|--------4--------4--------4---| |---------------------------|------------------------------| | | ~~~~~~~~~~~~~ ~~~~~~~ | H +E
        E        
   E
        E        
.  E
        E        
. a  E
        E        
.  E
        E        
.  E
        E        
+H |-16-------(16)-14----12----|-12h14----12------------------| |---------------------------|----------------14-(14)-------| |---------------------------|------------------------------| |---------------------------|------------------------------| |---------------------------|------------------------------| |---------------------------|------------------------------|  A
        A        
5  E
        E        
5/B
        B        
   E
        E        
 E
        E        
 E
        E        
 E
        E        
 E
        E        
 E
        E        
 E
        E        
 E
        E        
+E
        E        
  E
        E        
 E
        E        
 E
        E        
S S E
        E        
 E
        E        
 E
        E        
|----------------------|------------------------| |----------------------|------------------------| |----------------------|------------1--2-1------| |----2---2--4--2-----2-|-(2)---2-2---------2----| |--0---0----------0----|-----2---------------2--| |----------------------|------------------------| | |  E
        E        
 E
        E        
 E
        E        
 E
        E        
 E
        E        
 E
        E        
 E
        E        
 E
        E        
+E
        E        
  E
        E        
 E
        E        
 E
        E        
S S E
        E        
 E
        E        
 E
        E        
|----------------------|------------------------| |--------------0-----0-|-(0)--------------------| |----------------------|------------------------| |----2-4-2-------------|-------2----2--4-2------| |--0--------0-----0----|-----2---2---------4-2--| |----------------------|------------------------| | | > | ~~~~~~~~~~~~~ | H +E
        E        
  E
        E        
+Q H +H |-/7-------(7)-5-(5)---|--4--------(4)----------| |-/9-------(9)-7-(7)---|--5--------(5)----------| |----------------------|------------------------| |----------------------|------------------------| |----------------------|------------------------| |----------------------|------------------------| Out-Chorus  A
        A        
Q  E
        E        
 E
        E        
 E
        E        
 E
        E        
 E
        E        
 E
        E        
+E
        E        
  E
        E        
 E
        E        
 E
        E        
+E
        E        
  E
        E        
 E
        E        
 E
        E        
||----------------0-|-(0)-----------------| ||o---------0-------|---------4-(4)-------| ||------------------|---------------------| ||------2-----2-----|-----2---------2---2-| ||o--0----0-----0---|-------0---------0---| ||------------------|---------------------| | | W +W ||--^0--------------|-(0)-----------------| ||o-^2--------------|-(2)-----------------| ||--^2--------------|-(2)-----------------| ||--^2--------------|-(2)-----------------| ||o-^0--------------|-(0)-----------------| ||------------------|---------------------| C#m
       C#m       
  Q  E
        E        
 E
        E        
 E
        E        
 E
        E        
 E
        E        
 E
        E        
+E
        E        
  E
        E        
 E
        E        
 E
        E        
+E
        E        
  E
        E        
 E
        E        
 E
        E        
|---------------0-|-(0)-----------------| |---------0-------|---------4-(4)-------| |-----------------|---------------------| |-----2-----2-----|-----2---------2---2-| |--4----4-----4---|-------4---------4---| |-----------------|---------------------| | | W +W |-^0--------------|-(0)-----------------| |-^5--------------|-(5)-----------------| |-^6--------------|-(6)-----------------| |-^6--------------|-(6)-----------------| |-^4--------------|-(4)-----------------| |-----------------|---------------------| 1.,2.,3.  A
        A        
Q  E
        E        
 E
        E        
 E
        E        
 E
        E        
 E
        E        
 E
        E        
+E
        E        
  E
        E        
 E
        E        
 E
        E        
+E
        E        
  E
        E        
 E
        E        
 E
        E        
|---------------0-|-(0)-----------------| |---------0-------|---------4-(4)-------| |-----------------|---------------------| |-----2-----2-----|-----2---------2---2-| |--0----0-----0---|-------0---------0---| |-----------------|---------------------| | | W +W |-^0--------------|-(0)-----------------| |-^2--------------|-(2)-----------------| |-^2--------------|-(2)-----------------| |-^2--------------|-(2)-----------------| |-^0--------------|-(0)-----------------| |-----------------|---------------------| Esus
       Esus      
2/B
        B        
  Q  E
        E        
 E
        E        
 E
        E        
 E
        E        
 E
        E        
 E
        E        
+E
        E        
  E
        E        
 E
        E        
 E
        E        
+E
        E        
  E
        E        
 E
        E        
 E
        E        
4x |---------------0-|-(0)-----2-(2)---------|| |---------0-------|----------------------o|| |-----------------|-----------------------|| |-----4-----4-----|-----4---------4---4---|| |--2----2-----2---|-------2---------2----o|| |-----------------|-----------------------|| | | W +W 4x |-^0--------------|-(0)-------------------|| |-^0--------------|-(0)------------------o|| |-^4--------------|-(4)-------------------|| |-^4--------------|-(4)-------------------|| |-^2--------------|-(2)------------------o|| |-----------------|-----------------------|| 4. H.=H  A
        A        
Esus
       Esus      
2/B
        B        
  Q  E
        E        
 E
        E        
 E
        E        
 E
        E        
 E
        E        
 E
        E        
+E
        E        
  E
        E        
 E
        E        
 E
        E        
+E
        E        
  E
        E        
 E
        E        
 E
        E        
Q  E
        E        
 E
        E        
 E
        E        
 E
        E        
 E
        E        
 E
        E        
|---------------0-|-(0)-----------------|---------------0-| |---------0-------|---------4-(4)-------|---------0-------| |-----------------|---------------------|-----------------| |-----2-----2-----|-----2---------2---2-|-----4-----4-----| |--0----0-----0---|-------0---------0---|--2----2-----2---| |-----------------|---------------------|-----------------| | | W +W W |-^0--------------|-(0)-----------------|-^0--------------| |-^2--------------|-(2)-----------------|-^0--------------| |-^2--------------|-(2)-----------------|-^4--------------| |-^2--------------|-(2)-----------------|-^4--------------| |-^0--------------|-(0)-----------------|-^2--------------| |-----------------|---------------------|-----------------|  E
        E        
+E
        E        
  E
        E        
 E
        E        
 E
        E        
+E
        E        
  E
        E        
 E
        E        
 E
        E        
W +W |-(0)-----2-(2)-------|-0--------|-(0)----*| |---------------------|-0--------|-(0)----*| |---------------------|-1--------|-(1)----*| |-----4---------4---4-|-2--------|-(2)----*| |-------2---------2---|-2--------|-(2)----*| |---------------------|-0--------|-(0)----*| | | +W W +W |-(0)-----------------|-0--------|-(0)----*| |-(0)-----------------|-0--------|-(0)----*| |-(4)-----------------|-1--------|-(1)----*| |-(4)-----------------|-2--------|-(2)----*| |-(2)-----------------|-2--------|-(2)----*| |---------------------|-0--------|-(0)----*| Duration Legend --------------- W - whole; H - half; Q - quarter; E
        E        
- 8th; S - 16th; T - 32nd; X - 64th; a - acciaccatura + - note tied to previous; . - note dotted; .. - note double dotted Uncapitalized letters represent notes that are staccato (1/2 duration) Irregular groupings are notated above the duration line Duration letters will always appear directly above the note/fret number it represents the duration for.  D
        D        
uration letters with no fret number below them represent rests. Multi- bar rests are notated in the form Wxn, where n is the number of bars to rest for. Low melody durations appear below the staff Tablature Legend ---------------- h - hammer-on p - pull-off b - bend pb - pre-bend r - bend release (if no number after the r, then release immediately) / - slide into or out of (from/to "nowhere") s - legato slide S - shift slide - natural harmonic [n] - artificial harmonic n(n) - tapped harmonic ~ - vibrato tr - trill T - tap TP - trem. picking PM - palm muting / - tremolo bar dip; n = amount to dip - tremolo bar down n/ - tremolo bar up /n - tremolo bar inverted dip = - hold bend; also acts as connecting device for hammers/pulls - volume swell (louder/softer) x - on rhythm slash represents muted slash o - on rhythm slash represents single note slash Misc Legend ----------- | - bar || - double bar ||o - repeat start o|| - repeat end *| - double bar (ending) : - bar (freetime) $ - Segno & - C
        C        
oda Tempo markers - = B
        B        
PM(8/16=s8/s16), where s8 = swing 8ths, s16 = swing 16ths *************************************************************************************** * G
        G        
enerated using Power Tab E
        E        
ditor by B
        B        
rad Larsen - http://powertab.guitarnetwork.org * ***************************************************************************************

Este fichero es trabajo propio de su transcriptor y representa su interpretación personal de la canción. El material contenido en esta página es para exclusivo uso privado, por lo que se prohibe su reproducción o retransmisión, así como su uso para fines comerciales.