Quinn Peck - Motorized Miracles Forever (TAB)


#----------------------------------PLEASE
        E        
 NOTE---------------------------------# #This file is the author's own work and represents their interpretation of the # #song. You may only use this file for private study, scholarship, or research. # #------------------------------------------------------------------------------## MOTORIZED MI
       MI       
RACLES F
        F        
OREVER  A
        A        
s recorded by Quinn Peck Music by Quinn Peck Arranged by guitarist5240 Transcribed by guitarist5240  G
        G        
5 5 5 5 7 x x Gtr I (D
        D        
 A D
        D        
 G
        G        
 B
        B        
 E
        E        
) - 'Untitled' Gtr II (D
        D        
 A D
        D        
 G
        G        
 B
        B        
 E
        E        
) - 'Untitled' Gtr III (D
        D        
 A D
        D        
 G
        G        
 B
        B        
 E
        E        
) - 'Untitled' Gtr IV (D
        D        
 A D
        D        
 G
        G        
 B
        B        
 E
        E        
) - 'Untitled' Intro Q=144  D
        D        
 G
        G        
5 4/4  G
        G        
tr I Q.  E
        E        
+H Q. Q  E
        E        
 E
        E        
 E
        E        
Q.  E
        E        
+H Q. Q  E
        E        
 E
        E        
 E
        E        
|---------------|---------------|---------------|---------------| |---------------|---------------|---------------|---------------| |---------------|---------------|---------------|---------------| |---------------|---------------|---------------|-----------5-4-| |------5-(5)----|------5----5-7-|------5-(5)----|------5----7-5-| |-0-------------|-0-------0-----|-5-------------|-5-------5-----|  D
        D        
 G
        G        
5  A
        A        
Q.  E
        E        
+H Q. Q  E
        E        
 E
        E        
 E
        E        
Q.  E
        E        
+Q  E
        E        
 E
        E        
q H  E
        E        
 E
        E        
|---------------|---------------|-----------------|--------------| |---------------|---------------|-----------------|--------------| |---------------|---------------|-----------------|--------------| |---------------|---------------|-----------------|--------------| |------5-(5)----|------5----5-7-|------5-(5)------|--------------| |-0-------------|-0-------0-----|-5-----------5-5-|-7-------7p5--|  D
        D        
 G
        G        
5  E
        E        
 E
        E        
 E
        E        
 E
        E        
 E
        E        
 E
        E        
 E
        E        
 E
        E        
+E
        E        
  E
        E        
 E
        E        
 E
        E        
 E
        E        
 E
        E        
 E
        E        
 E
        E        
 E
        E        
 E
        E        
 E
        E        
 E
        E        
 E
        E        
 E
        E        
 E
        E        
 E
        E        
+E
        E        
  E
        E        
 E
        E        
 E
        E        
 E
        E        
 E
        E        
 E
        E        
 E
        E        
|-----------------|-------------------|-----------------|--------------------| |-----------------|-------------------|-----------------|--------------------| |-----------------|-------------------|-----------------|--------------------| |-----------------|-------------------|-----------------|--------------------| |-----5---7p5---5-|-(5)---5---7-5---0-|-----5---7p5---5-|-(5)---5---7-5---0--| |-0-0---0-----0---|-----0---0-----0---|-5-5---5-----5---|-----5---5-----5----|  D
        D        
 G
        G        
5  A
        A        
 E
        E        
 E
        E        
 E
        E        
 E
        E        
 E
        E        
 E
        E        
 E
        E        
 E
        E        
+E
        E        
  E
        E        
 E
        E        
 E
        E        
 E
        E        
 E
        E        
 E
        E        
 E
        E        
 E
        E        
 E
        E        
 E
        E        
 E
        E        
 E
        E        
 E
        E        
 E
        E        
 E
        E        
+E
        E        
  E
        E        
 E
        E        
 E
        E        
 E
        E        
 E
        E        
 E
        E        
 E
        E        
|-----------------|-------------------|-----------------|--------------------| |-----------------|-------------------|-----------------|--------------------| |-----------------|-------------------|-----------------|--------------------| |-----------------|-------------------|-----------------|--------------------| |-----5---7p5---5-|-(5)---5---7-5---0-|-----5---7p5-----|-------5---7-5------| |-0-0---0-----0---|-----0---0-----0---|-5-5---5-----5-7-|-(7)-7---7-----7-5--| | | G
        G        
tr II | W W W H  E
        E        
 E
        E        
 E
        E        
 E
        E        
|-----------------|-------------------|-----------------|--------------------| |-----------------|-------------------|-----------------|--------------------| |-----------------|-------------------|-----------------|--------------------| |-----------------|-------------------|-----------------|-----------5-4------| |-----------------|-------------------|-----------------|---------------5----| |-----------------|-------------------|-----------------|-----------------5--| Verse  D
        D        
 E
        E        
 E
        E        
 E
        E        
 E
        E        
 E
        E        
 E
        E        
 E
        E        
 E
        E        
+E
        E        
  E
        E        
 E
        E        
 E
        E        
 E
        E        
 E
        E        
 E
        E        
 E
        E        
||------------------|---------------------| ||o-----------------|---------------------| ||------------------|---------------------| ||------------------|---------------------| ||o-----5---7p5---5-|-(5)---5---7---5---0-| ||--0-0---0-----0---|-----0---0-------0---| | |  E
        E        
 E
        E        
 E
        E        
 E
        E        
 E
        E        
 E
        E        
 E
        E        
 E
        E        
+E
        E        
  E
        E        
 E
        E        
 E
        E        
S S E
        E        
 E
        E        
 E
        E        
||------------------|---------------------| ||o-----------------|---------------------| ||------------------|---------------------| ||----------------4-|-(4)-----4-4-5-4-----| ||o-----5---7p5-----|-----5-----------5---| ||--0-0---0-----0---|-------0-----------0-|  G
        G        
5  E
        E        
 E
        E        
 E
        E        
 E
        E        
 E
        E        
 E
        E        
 E
        E        
 E
        E        
+E
        E        
  E
        E        
 E
        E        
 E
        E        
 E
        E        
 E
        E        
 E
        E        
 E
        E        
|-----------------|-------------------------| |-----------------|-------------------------| |-----------------|-------------------------| |-----------------|-------------------------| |-----5---7p5---5-|-(5)---5---7---5-----0---| |-5-5---5-----5---|-----5---5-------5-------| | | E
        E        
 E
        E        
 E
        E        
 E
        E        
 E
        E        
 E
        E        
 E
        E        
 E
        E        
+E
        E        
  E
        E        
 E
        E        
 E
        E        
S S E
        E        
S S E
        E        
|-----------------|-------------------------| |-----------------|-------------------------| |-----------------|-------------------------| |---------------4-|-(4)-----4-4-5-4---------| |-----5---7p5-----|-----5-----------5-7-5---| |-5-5---5-----5---|-------5-----------------| 1.  D
        D        
 E
        E        
 E
        E        
 E
        E        
 E
        E        
 E
        E        
 E
        E        
 E
        E        
 E
        E        
+E
        E        
  E
        E        
 E
        E        
 E
        E        
 E
        E        
 E
        E        
 E
        E        
 E
        E        
|-----------------|---------------------| |-----------------|---------------------| |-----------------|---------------------| |-----------------|---------------------| |-----5---7p5---5-|-(5)---5---7---5---0-| |-0-0---0-----0---|-----0---0-------0---| | | E
        E        
 E
        E        
 E
        E        
 E
        E        
 E
        E        
 E
        E        
 E
        E        
 E
        E        
+E
        E        
  E
        E        
 E
        E        
 E
        E        
S S E
        E        
 E
        E        
 E
        E        
|-----------------|---------------------| |-----------------|---------------------| |-----------------|---------------------| |---------------4-|-(4)-----4-4-5-4-----| |-----5---7p5-----|-----5-----------5---| |-0-0---0-----0---|-------0-----------0-|  G
        G        
5  A
        A        
 E
        E        
 E
        E        
 E
        E        
 E
        E        
 E
        E        
 E
        E        
 E
        E        
 E
        E        
+E
        E        
  E
        E        
 E
        E        
 E
        E        
 E
        E        
 E
        E        
 E
        E        
 E
        E        
|-----------------|--------------------|| |-----------------|-------------------o|| |-----------------|--------------------|| |-----------------|--------------------|| |-----5---7p5-----|-------5---7-5-----o|| |-5-5---5-----5-7-|-(7)-7---7-----7-5--|| | | E
        E        
 E
        E        
 E
        E        
 E
        E        
 E
        E        
 E
        E        
 E
        E        
 E
        E        
+E
        E        
  E
        E        
 E
        E        
 E
        E        
 E
        E        
 E
        E        
 E
        E        
 E
        E        
|-----------------|--------------------|| |-----------------|-------------------o|| |-----------------|--------------------|| |---------------7-|-(7)-7-5-4-5-4------|| |-----5---7p5-----|---------------7-5-o|| |-5-5---5-----5---|--------------------|| 2.  D
        D        
 G
        G        
5  A
        A        
 E
        E        
 E
        E        
 E
        E        
 E
        E        
 E
        E        
 E
        E        
 E
        E        
 E
        E        
+E
        E        
  E
        E        
 E
        E        
 E
        E        
 E
        E        
 E
        E        
 E
        E        
 E
        E        
 E
        E        
 E
        E        
 E
        E        
 E
        E        
 E
        E        
 E
        E        
 E
        E        
 E
        E        
+E
        E        
  E
        E        
 E
        E        
 E
        E        
 E
        E        
 E
        E        
 E
        E        
 E
        E        
|-----------------|---------------------|-----------------|-------------------| |-----------------|---------------------|-----------------|-------------------| |-----------------|---------------------|-----------------|-------------------| |-----------------|---------------------|-----------------|-------------------| |-----5---7p5---5-|-(5)---5---7---5---5-|-----5---7p5-----|-------5---7-5-----| |-0-0---0-----0---|-----0---0-------0---|-5-5---5-----5-7-|-(7)-7---7-----7-5-| | | E
        E        
 E
        E        
 E
        E        
 E
        E        
 E
        E        
 E
        E        
 E
        E        
 E
        E        
+E
        E        
  E
        E        
 E
        E        
 E
        E        
S S E
        E        
 E
        E        
 E
        E        
 E
        E        
 E
        E        
 E
        E        
 E
        E        
 E
        E        
 E
        E        
 E
        E        
 E
        E        
+E
        E        
  E
        E        
 E
        E        
 E
        E        
 E
        E        
 E
        E        
 E
        E        
 E
        E        
|-----------------|---------------------|-----------------|-------------------| |-----------------|---------------------|-----------------|-------------------| |-----------------|---------------------|-----------------|-------------------| |---------------4-|-(4)-----4-4-5-4-----|---------------7-|-(7)-7-5-4-5-4-----| |-----5---7p5-----|-----5-----------5---|-----5---7p5-----|---------------7-5-| |-0-0---0-----0---|-------0-----------0-|-5-5---5-----5---|-------------------| | | G
        G        
tr III | < | PM| | W W W +H.  E
        E        
 E
        E        
|-----------------|---------------------|-----------------|-------------------| |-----------------|---------------------|-----------------|-------------------| |-----------------|---------------------|-----------------|-------------------| |-----------------|---------------------|-5---------------|-(5)---------------| |-----------------|---------------------|-5---------------|-(5)-----------0-0-| |-----------------|---------------------|-5---------------|-(5)-----------0-0-|  C
        C        
horus  D
        D        
5  G
        G        
trs I, III W +H. Q ||------------------|-------------------| ||o-----------------|-------------------| ||--7---------------|-(7)---------------| ||--0---------------|-(0)-----------4---| ||o-0---------------|-(0)---------------| ||--0---------------|-(0)-----------4---| | |  E
        E        
 E
        E        
 E
        E        
 E
        E        
 E
        E        
 E
        E        
 E
        E        
 E
        E        
+E
        E        
  E
        E        
 E
        E        
 E
        E        
 E
        E        
 E
        E        
 E
        E        
 E
        E        
||------------------|-------------------| ||o-----------------|-------------------| ||------------------|-------------------| ||------------------|-------------------| ||o-----5---7p5---5-|-(5)---5---7-5---5-| ||--0-0---0-----0---|-----0---0-----0---|  G
        G        
5 H.. S S Q.  E
        E        
 E
        E        
.  E
        E        
.  E
        E        
|-------------------------|-----------------------| |-------------------------|-----------------------| |-7---------------(7)-(7)-|-(7)-------------------| |-5---------------(5)-(5)-|-(5)-----4-5----4------| |-5---------------(5)-(5)-|-(5)-----------------5-| |-5----------------5---5--|--5--------------------| | | E
        E        
 E
        E        
 E
        E        
 E
        E        
 E
        E        
 E
        E        
 E
        E        
 E
        E        
+E
        E        
  E
        E        
 E
        E        
 E
        E        
 E
        E        
 E
        E        
 E
        E        
 E
        E        
|-------------------------|-----------------------| |-------------------------|-----------------------| |-------------------------|-----------------------| |-------------------------|-----------------------| |-------5---7p5----5------|-(5)---5---7--5------5-| |-5---5---5-----5---------|-----5---5---------5---|  D
        D        
5 H.  E
        E        
 E
        E        
Q. Q  E
        E        
Q |----------------------|-------------------------| |----------------------|-------------------------| |-7------------(7)-(7)-|-(7)-----(7)---(7)-(7)---| |-0------------(0)-(0)-|--4-------5-----5h==7----| |-0------------(0)-(0)-|-(0)-----(0)---(0)-(0)---| |-0-------------0---0--|-(0)-----(0)---(0)-(0)---| | | E
        E        
 E
        E        
 E
        E        
 E
        E        
 E
        E        
 E
        E        
 E
        E        
 E
        E        
+E
        E        
  E
        E        
 E
        E        
 E
        E        
 E
        E        
 E
        E        
 E
        E        
 E
        E        
|----------------------|-------------------------| |----------------------|-------------------------| |----------------------|-------------------------| |----------------------|-------------------------| |------5---7p5------5--|-(5)---5-----7--5------5-| |-0--0---0------0------|-----0----0---------0----|  D
        D        
5/G
        G        
   G
        G        
5 PM| H. +E
        E        
  S S H.  E
        E        
 E
        E        
|--------------------------|--------------------|| |--------------------------|-------------------o|| |--------------------------|--------------------|| |-7------------(7)--5---7--|--5-----------------|| |-5------------(5)-(5)-(5)-|-(5)-----------0-0-o|| |-5------------(5)-(5)-(5)-|-(5)-----------0-0--|| | | E
        E        
 E
        E        
 E
        E        
 E
        E        
 E
        E        
 E
        E        
 E
        E        
 E
        E        
+E
        E        
  E
        E        
 E
        E        
 E
        E        
 E
        E        
 E
        E        
 E
        E        
 E
        E        
|--------------------------|--------------------|| |--------------------------|-------------------o|| |--------------------------|--------------------|| |--------------------------|--------------------|| |------5---7p5------5------|-(5)---5---7-5---5-o|| |-5--5---5------5----------|-----5---5-----5----||  G
        G        
uitar B
        B        
reak  D
        D        
 G
        G        
tr I  E
        E        
 E
        E        
 E
        E        
 E
        E        
 E
        E        
 E
        E        
 E
        E        
 E
        E        
+E
        E        
  E
        E        
 E
        E        
 E
        E        
 E
        E        
 E
        E        
 E
        E        
 E
        E        
|-------------------|----------------------| |-------------------|----------------------| |-------------------|----------------------| |-------------------|----------------------| |-------5---7p5---5-|--(5)---5---7-5-----5-| |---0-0---0-----0---|------0---0------0----| | | G
        G        
tr II | W +H.  E
        E        
 E
        E        
|-/10---------------|-(10)-----------10----| |-/10---------------|-(10)--------------10-| |-------------------|----------------------| |-------------------|----------------------| |-------------------|----------------------| |-------------------|----------------------| | | G
        G        
tr III | > | W +W |-------------------|----------------------| |-------------------|----------------------| |---7---------------|--(7)-----------------| |---0---------------|--(0)-----------------| |---0---------------|--(0)-----------------| |---0---------------|--(0)-----------------|  G
        G        
5  E
        E        
 E
        E        
 E
        E        
 E
        E        
 E
        E        
 E
        E        
 E
        E        
 E
        E        
+E
        E        
  E
        E        
 E
        E        
 E
        E        
 E
        E        
 E
        E        
 E
        E        
 E
        E        
|-----------------------------|-------------------| |-----------------------------|-------------------| |-----------------------------|-------------------| |-----------------------------|-------------------| |---------5--------7p5------5-|-(5)---5---7-5---5-| |-5--5-----------5--------5---|-----5---5-----5---| | | E
        E        
.  E
        E        
+S  E
        E        
 E
        E        
.  E
        E        
.  E
        E        
H.  E
        E        
 E
        E        
|-9----------------7----------|--7----------------| |------10---(10)s8-----8----7-|--8------------8-7-| |-----------------------------|-------------------| |-----------------------------|-------------------| |-----------------------------|-------------------| |-----------------------------|-------------------| | | W W |-----------------------------|-------------------| |-----------------------------|-------------------| |-----------------------------|-------------------| |-----------------------------|-------------------| |-----------------------------|-------------------| |-----------------------------|-------------------|  D
        D        
 E
        E        
 E
        E        
 E
        E        
 E
        E        
 E
        E        
 E
        E        
 E
        E        
 E
        E        
+E
        E        
  E
        E        
 E
        E        
 E
        E        
 E
        E        
 E
        E        
 E
        E        
 E
        E        
|-----------------------|---------------------| |-----------------------|---------------------| |-----------------------|---------------------| |-----------------------|---------------------| |---------5----7p=5---5-|-(5)-----5---7-5---5-| |-0--0------0-------0---|-----0-----0-----0---| | | E
        E        
.  E
        E        
.  E
        E        
+H +E
        E        
  S S E
        E        
 E
        E        
 E
        E        
 E
        E        
 E
        E        
 E
        E        
|-----------------------|---------------------| |-8----7----------------|-------------7-------| |-----------7-(7)-------|-(7)-----7-9---9-7---| |-----------------------|-----7h9-----------7-| |-----------------------|---------------------| |-----------------------|---------------------|  G
        G        
5  A
        A        
 E
        E        
 E
        E        
 E
        E        
 E
        E        
 E
        E        
 E
        E        
 E
        E        
 E
        E        
+E
        E        
  E
        E        
 E
        E        
 E
        E        
 E
        E        
 E
        E        
 E
        E        
 E
        E        
|--------------------------|--------------------| |--------------------------|--------------------| |--------------------------|--------------------| |--------------------------|--------------------| |---------5---7p5----------|-------5---7-5------| |-5--5------5--------5-7---|-(7)-7---7-----7-5--| | | E
        E        
.  E
        E        
.  E
        E        
 E
        E        
.  E
        E        
. S S H.  E
        E        
 E
        E        
|--------------------------|--------------------| |-8----7------7------------|--------------------| |-----------9-----7--------|--------------------| |----------------------7h9-|--7------------0----| |--------------------------|-----------------0--| |--------------------------|--------------------| Verse  D
        D        
 G
        G        
tr I  E
        E        
 E
        E        
 E
        E        
 E
        E        
 E
        E        
 E
        E        
 E
        E        
 E
        E        
+E
        E        
  E
        E        
 E
        E        
 E
        E        
 E
        E        
 E
        E        
 E
        E        
 E
        E        
||---------------------|---------------------| ||o--------------------|---------------------| ||---------------------|---------------------| ||---------------------|---------------------| ||o------5---7p=5----5-|-(5)----5---7--5---5-| ||--0-0----0------0----|-----0----0------0---| | |  G
        G        
tr II |  E
        E        
 E
        E        
 E
        E        
 E
        E        
 E
        E        
 E
        E        
 E
        E        
 E
        E        
+E
        E        
  E
        E        
 E
        E        
 E
        E        
 E
        E        
 E
        E        
 E
        E        
 E
        E        
||---------------------|---------------------| ||o--------------------|---------------------| ||------------------/9-|-(9)-9--9-9-9s=7-7-7-| ||---------------------|---------------------| ||o------5---7p=5---/7-|-(7)-7--7-7-7s=5-5-5-| ||--0-0----0------0----|---------------------| | |  G
        G        
tr IV |  E
        E        
 E
        E        
 E
        E        
 E
        E        
 E
        E        
 E
        E        
 E
        E        
 E
        E        
 E
        E        
 E
        E        
 E
        E        
 E
        E        
 E
        E        
 E
        E        
 E
        E        
 E
        E        
||------10-----10------|-------10-----10-----| ||o------------------7-|-------------------7-| ||----7------7---------|-----7------7--------| ||--7------7------7----|--7-------7------7---| ||o--------------------|---------------------| ||---------------------|---------------------|  G
        G        
5  E
        E        
 E
        E        
 E
        E        
 E
        E        
 E
        E        
 E
        E        
 E
        E        
 E
        E        
+E
        E        
  E
        E        
 E
        E        
 E
        E        
 E
        E        
 E
        E        
 E
        E        
 E
        E        
|--------------------|---------------------| |--------------------|---------------------| |--------------------|---------------------| |--------------------|---------------------| |------5---7p=5----5-|-(5)----5---7--5---5-| |-5-5----5------5----|-----5----5------5---| | | E
        E        
 E
        E        
 E
        E        
 E
        E        
 E
        E        
 E
        E        
 E
        E        
 E
        E        
+E
        E        
  E
        E        
 E
        E        
 E
        E        
 E
        E        
 E
        E        
 E
        E        
 E
        E        
|--------------------|---------------------| |--------------------|---------------------| |-----------------/9-|-(9)-9--9-9-9s11-9-7-| |--------------------|---------------------| |------5---7p=5---/7-|-(7)-7--7-7-7s=9-7-5-| |-5-5----5------5----|---------------------| | | E
        E        
 E
        E        
 E
        E        
 E
        E        
 E
        E        
 E
        E        
 E
        E        
 E
        E        
 E
        E        
 E
        E        
 E
        E        
 E
        E        
 E
        E        
 E
        E        
 E
        E        
 E
        E        
|-----10-----10------|-------10-----10-----| |------------------7-|-------------------7-| |---7------7---------|-----7------7--------| |-7------7------7----|--7-------7------7---| |--------------------|---------------------| |--------------------|---------------------| 1.  D
        D        
 E
        E        
 E
        E        
 E
        E        
 E
        E        
 E
        E        
 E
        E        
 E
        E        
 E
        E        
+E
        E        
  E
        E        
 E
        E        
 E
        E        
 E
        E        
 E
        E        
 E
        E        
 E
        E        
|--------------------|---------------------| |--------------------|---------------------| |--------------------|---------------------| |--------------------|---------------------| |------5---7p=5----5-|-(5)----5---7--5---5-| |-0-0----0------0----|-----0----0------0---| | | E
        E        
 E
        E        
 E
        E        
 E
        E        
 E
        E        
 E
        E        
 E
        E        
 E
        E        
+E
        E        
  E
        E        
 E
        E        
 E
        E        
 E
        E        
 E
        E        
 E
        E        
 E
        E        
|--------------------|---------------------| |--------------------|---------------------| |-----------------/9-|-(9)-9--9-9-9s=7-7-7-| |--------------------|---------------------| |------5---7p=5---/7-|-(7)-7--7-7-7s=5-5-5-| |-0-0----0------0----|---------------------| | | E
        E        
 E
        E        
 E
        E        
 E
        E        
 E
        E        
 E
        E        
 E
        E        
 E
        E        
 E
        E        
 E
        E        
 E
        E        
 E
        E        
 E
        E        
 E
        E        
 E
        E        
 E
        E        
|-----10-----10------|-------10-----10-----| |------------------7-|-------------------7-| |---7------7---------|-----7------7--------| |-7------7------7----|--7-------7------7---| |--------------------|---------------------| |--------------------|---------------------|  G
        G        
5  A
        A        
 E
        E        
 E
        E        
 E
        E        
 E
        E        
 E
        E        
 E
        E        
 E
        E        
 E
        E        
+E
        E        
   E
        E        
 E
        E        
 E
        E        
 E
        E        
 E
        E        
 E
        E        
 E
        E        
|---------------------|----------------------------|| |---------------------|---------------------------o|| |---------------------|----------------------------|| |---------------------|----------------------------|| |------5---7p=5-------|----------5-----7--5-------o|| |-5-5----5------5---7-|--(7)--7-----7--------7-5---|| | | E
        E        
 E
        E        
 E
        E        
 E
        E        
 E
        E        
 E
        E        
 E
        E        
 E
        E        
+E
        E        
   E
        E        
 E
        E        
 E
        E        
 E
        E        
 E
        E        
 E
        E        
 E
        E        
|---------------------|----------------------------|| |---------------------|---------------------------o|| |-----------------/11-|-(11)-11-11-11-11s=9--9s7---|| |---------------------|----------------------------|| |------5---7p=5----/9-|--(9)--9--9--9--9s=7--7s5--o|| |-5-5----5------5-----|----------------------------|| | | E
        E        
 E
        E        
 E
        E        
 E
        E        
 E
        E        
 E
        E        
 E
        E        
 E
        E        
 E
        E        
 E
        E        
 E
        E        
 E
        E        
 E
        E        
 E
        E        
 E
        E        
 E
        E        
|-----10-----10-------|---------10-------10--------|| |-------------------7-|---------------------10----o|| |---7------7----------|-------7--------7-------7---|| |-7------7------7-----|---7---------7--------------|| |---------------------|---------------------------o|| |---------------------|----------------------------|| 2.  D
        D        
 E
        E        
 E
        E        
 E
        E        
 E
        E        
 E
        E        
 E
        E        
 E
        E        
 E
        E        
+E
        E        
  E
        E        
 E
        E        
 E
        E        
 E
        E        
 E
        E        
 E
        E        
 E
        E        
|--------------------|---------------------| |--------------------|---------------------| |--------------------|---------------------| |--------------------|---------------------| |------5---7p=5----5-|-(5)----5---7--5---5-| |-0-0----0------0----|-----0----0------0---| | | E
        E        
 E
        E        
 E
        E        
 E
        E        
 E
        E        
 E
        E        
 E
        E        
 E
        E        
+E
        E        
  E
        E        
 E
        E        
 E
        E        
 E
        E        
 E
        E        
 E
        E        
 E
        E        
|--------------------|---------------------| |--------------------|---------------------| |-----------------/9-|-(9)-9--9-9-9s=7-7-7-| |--------------------|---------------------| |------5---7p=5---/7-|-(7)-7--7-7-7s=5-5-5-| |-0-0----0------0----|---------------------| | | E
        E        
 E
        E        
 E
        E        
 E
        E        
 E
        E        
 E
        E        
 E
        E        
 E
        E        
 E
        E        
 E
        E        
 E
        E        
 E
        E        
 E
        E        
 E
        E        
 E
        E        
 E
        E        
|-----10-----10------|-------10-----10-----| |------------------7-|-------------------7-| |---7------7---------|-----7------7--------| |-7------7------7----|--7-------7------7---| |--------------------|---------------------| |--------------------|---------------------|  G
        G        
5  A
        A        
 G
        G        
trs I, III PM|  E
        E        
 E
        E        
 E
        E        
 E
        E        
 E
        E        
 E
        E        
 E
        E        
 E
        E        
+E
        E        
   E
        E        
 E
        E        
 E
        E        
 E
        E        
 E
        E        
 E
        E        
 E
        E        
|---------------------|---------------------------| |---------------------|---------------------------| |---------------------|---------------------------| |---------------------|---------------------------| |------5---7p=5-------|----------5-----7--5--0-0--| |-5-5----5------5---7-|--(7)--7-----7--------0-0--| | | E
        E        
 E
        E        
 E
        E        
 E
        E        
 E
        E        
 E
        E        
 E
        E        
 E
        E        
+E
        E        
   E
        E        
 E
        E        
 E
        E        
 E
        E        
 E
        E        
 E
        E        
 E
        E        
|---------------------|---------------------------| |---------------------|---------------------------| |-----------------/11-|-(11)-11-11-11-11s=9--9s7--| |---------------------|---------------------------| |------5---7p=5----/9-|--(9)--9--9--9--9s=7--7s5--| |-5-5----5------5-----|---------------------------| | | E
        E        
 E
        E        
 E
        E        
 E
        E        
 E
        E        
 E
        E        
 E
        E        
 E
        E        
 E
        E        
 E
        E        
 E
        E        
 E
        E        
 E
        E        
 E
        E        
 E
        E        
 E
        E        
|-----10-----10-------|---------10-------10-------| |-------------------7-|---------------------10----| |---7------7----------|-------7--------7-------7--| |-7------7------7-----|---7---------7-------------| |---------------------|---------------------------| |---------------------|---------------------------|  C
        C        
horus  D
        D        
5  G
        G        
trs I, III W +H. Q ||--------------------|--------------------| ||o-------------------|--------------------| ||--7-----------------|-(7)----------------| ||--0-----------------|-(0)------------4---| ||o-0-----------------|-(0)----------------| ||--0-----------------|-(0)------------4---| | |  G
        G        
tr II |  E
        E        
 E
        E        
 E
        E        
 E
        E        
 E
        E        
 E
        E        
 E
        E        
 E
        E        
+E
        E        
  E
        E        
 E
        E        
 E
        E        
 E
        E        
 E
        E        
 E
        E        
 E
        E        
||--------------------|--------------------| ||o-------------------|--------------------| ||--------------------|--------------------| ||--------------------|--------------------| ||o------5---7p=5---5-|-(5)---5----7-5---5-| ||--0-0----0------0---|-----0----0-----0---| | |  G
        G        
tr IV |  E
        E        
 E
        E        
 E
        E        
 E
        E        
 E
        E        
 E
        E        
 E
        E        
 E
        E        
 E
        E        
 E
        E        
 E
        E        
 E
        E        
 E
        E        
 E
        E        
 E
        E        
 E
        E        
||--------------------|--------------------| ||o-----10-----10-----|-10------10-----7---| ||----7------7------7-|-------7------7---7-| ||--0------0------0---|-----0------0-------| ||o-------------------|--------------------| ||--------------------|--------------------|  G
        G        
5 H.. S S Q.  E
        E        
 E
        E        
.  E
        E        
.  E
        E        
|-------------------------|-----------------------| |-------------------------|-----------------------| |-7---------------(7)-(7)-|-(7)-------------------| |-5---------------(5)-(5)-|-(5)-----4-5----4------| |-5---------------(5)-(5)-|-(5)-----------------5-| |-5----------------5---5--|--5--------------------| | | E
        E        
 E
        E        
 E
        E        
 E
        E        
 E
        E        
 E
        E        
 E
        E        
 E
        E        
+E
        E        
  E
        E        
 E
        E        
 E
        E        
 E
        E        
 E
        E        
 E
        E        
 E
        E        
|-------------------------|-----------------------| |-------------------------|-----------------------| |-------------------------|-----------------------| |-------------------------|-----------------------| |-------5---7p5----5------|-(5)---5---7--5------5-| |-5---5---5-----5---------|-----5---5---------5---| | | E
        E        
 E
        E        
 E
        E        
 E
        E        
 E
        E        
 E
        E        
 E
        E        
 E
        E        
 E
        E        
 E
        E        
 E
        E        
 E
        E        
 E
        E        
 E
        E        
 E
        E        
 E
        E        
|-------------------------|-----------------------| |-------8-----8-----------|--8------8---------7---| |-----7-----7------7------|-------7------7------7-| |-5-------5-----5---------|-----5-----5-----------| |-------------------------|-----------------------| |-------------------------|-----------------------| 1.  D
        D        
5 H.  E
        E        
 E
        E        
Q. Q  E
        E        
Q |----------------------|-------------------------| |----------------------|-------------------------| |-7------------(7)-(7)-|-(7)-----(7)---(7)-(7)---| |-0------------(0)-(0)-|--4-------5-----5h==7----| |-0------------(0)-(0)-|-(0)-----(0)---(0)-(0)---| |-0-------------0---0--|-(0)-----(0)---(0)-(0)---| | | E
        E        
 E
        E        
 E
        E        
 E
        E        
 E
        E        
 E
        E        
 E
        E        
 E
        E        
+E
        E        
  E
        E        
 E
        E        
 E
        E        
 E
        E        
 E
        E        
 E
        E        
 E
        E        
|----------------------|-------------------------| |----------------------|-------------------------| |----------------------|-------------------------| |----------------------|-------------------------| |------5---7p5------5--|-(5)---5-----7--5------5-| |-0--0---0------0------|-----0----0---------0----| | | E
        E        
 E
        E        
 E
        E        
 E
        E        
 E
        E        
 E
        E        
 E
        E        
 E
        E        
 E
        E        
 E
        E        
 E
        E        
 E
        E        
 E
        E        
 E
        E        
 E
        E        
 E
        E        
|----------------------|-------------------------| |------7-----7---------|--7-------7---------7----| |----7-----7--------7--|-------7--------7--------| |-7------7------7------|-----7-------7---------7-| |----------------------|-------------------------| |----------------------|-------------------------|  D
        D        
5/G
        G        
   G
        G        
5 PM| H. +E
        E        
  S S H.  E
        E        
 E
        E        
|--------------------------|--------------------|| |--------------------------|-------------------o|| |--------------------------|--------------------|| |-7------------(7)--5---7--|--5-----------------|| |-5------------(5)-(5)-(5)-|-(5)-----------0-0-o|| |-5------------(5)-(5)-(5)-|-(5)-----------0-0--|| | | E
        E        
 E
        E        
 E
        E        
 E
        E        
 E
        E        
 E
        E        
 E
        E        
 E
        E        
+E
        E        
  E
        E        
 E
        E        
 E
        E        
 E
        E        
 E
        E        
 E
        E        
 E
        E        
|--------------------------|--------------------|| |--------------------------|-------------------o|| |--------------------------|--------------------|| |--------------------------|--------------------|| |------5---7p5------5------|-(5)---5---7-5---5-o|| |-5--5---5------5----------|-----5---5-----5----|| | | E
        E        
 E
        E        
 E
        E        
 E
        E        
 E
        E        
 E
        E        
 E
        E        
 E
        E        
 E
        E        
 E
        E        
 E
        E        
 E
        E        
 E
        E        
 E
        E        
 E
        E        
 E
        E        
|--------------------------|--------------------|| |------8-----8-------------|-------8-----7---7-o|| |----7-----7--------7------|-----7-----7--------|| |-9------9------9----------|--7------7-----7----|| |--------------------------|-------------------o|| |--------------------------|--------------------|| 2.  D
        D        
5 H.  E
        E        
 E
        E        
Q. Q  E
        E        
Q |----------------------|-------------------------| |----------------------|-------------------------| |-7------------(7)-(7)-|-(7)-----(7)---(7)-(7)---| |-0------------(0)-(0)-|--4-------5-----5h==7----| |-0------------(0)-(0)-|-(0)-----(0)---(0)-(0)---| |-0-------------0---0--|-(0)-----(0)---(0)-(0)---| | | E
        E        
 E
        E        
 E
        E        
 E
        E        
 E
        E        
 E
        E        
 E
        E        
 E
        E        
+E
        E        
  E
        E        
 E
        E        
 E
        E        
 E
        E        
 E
        E        
 E
        E        
 E
        E        
|----------------------|-------------------------| |----------------------|-------------------------| |----------------------|-------------------------| |----------------------|-------------------------| |------5---7p5------5--|-(5)---5-----7--5------5-| |-0--0---0------0------|-----0----0---------0----| | | E
        E        
 E
        E        
 E
        E        
 E
        E        
 E
        E        
 E
        E        
 E
        E        
 E
        E        
 E
        E        
 E
        E        
 E
        E        
 E
        E        
 E
        E        
 E
        E        
 E
        E        
 E
        E        
|----------------------|-------------------------| |------7-----7---------|--7-------7---------7----| |----7-----7--------7--|-------7--------7--------| |-7------7------7------|-----7-------7---------7-| |----------------------|-------------------------| |----------------------|-------------------------|  D
        D        
5/G
        G        
   G
        G        
5  G
        G        
tr III H. +E
        E        
  S S H.  E
        E        
 E
        E        
|--------------------------|--------------------| |--------------------------|--------------------| |--------------------------|------------------7-| |-7------------(7)--5---7--|--5------------/9---| |-5------------(5)-(5)-(5)-|-(5)----------------| |-5------------(5)-(5)-(5)-|-(5)----------------| | | E
        E        
 E
        E        
 E
        E        
 E
        E        
 E
        E        
 E
        E        
 E
        E        
 E
        E        
+E
        E        
  E
        E        
 E
        E        
 E
        E        
 E
        E        
 E
        E        
 E
        E        
 E
        E        
|--------------------------|--------------------| |--------------------------|--------------------| |--------------------------|--------------------| |--------------------------|--------------------| |------5---7p5------5------|-(5)---5---7-5----5-| |-5--5---5------5----------|-----5---5------5---| | | E
        E        
 E
        E        
 E
        E        
 E
        E        
 E
        E        
 E
        E        
 E
        E        
 E
        E        
 E
        E        
 E
        E        
 E
        E        
 E
        E        
 E
        E        
 E
        E        
 E
        E        
 E
        E        
|--------------------------|--------------------| |------8-----8-------------|-------8-----7----7-| |----7-----7--------7------|-----7-----7--------| |-9------9------9----------|--7------7------7---| |--------------------------|--------------------| |--------------------------|--------------------|  G
        G        
uitar B
        B        
reak  D
        D        
 G
        G        
tr I  E
        E        
 E
        E        
 E
        E        
 E
        E        
 E
        E        
 E
        E        
 E
        E        
 E
        E        
+E
        E        
  E
        E        
 E
        E        
 E
        E        
 E
        E        
 E
        E        
 E
        E        
 E
        E        
|-----------------------------|----------------------| |-----------------------------|----------------------| |-----------------------------|----------------------| |-----------------------------|----------------------| |--------------5-----7p=5---5-|--(5)---5-----7-5---5-| |---0------0------0-------0---|------0---0-------0---| | | G
        G        
tr III | ~~~~~~~~~ |  E
        E        
+E
        E        
  +Q +E
        E        
  E
        E        
 E
        E        
 E
        E        
+Q. S S E
        E        
 E
        E        
 E
        E        
 E
        E        
|-----------------------------|----------------------| |-----------------------------|------------------7---| |---9b11==(9)-(9)---(9)-9r7-7-|--(7)---------7-9---9-| |-----------------------------|----------7h9---------| |-----------------------------|----------------------| |-----------------------------|----------------------| | | G
        G        
tr IV | W +W |-^10-------------------------|-(10)-----------------| |-^-7-------------------------|--(7)-----------------| |-^-7-------------------------|--(7)-----------------| |-^-0-------------------------|--(0)-----------------| |-----------------------------|----------------------| |-----------------------------|----------------------|  G
        G        
5  E
        E        
 E
        E        
 E
        E        
 E
        E        
 E
        E        
 E
        E        
 E
        E        
 E
        E        
+E
        E        
  E
        E        
 E
        E        
 E
        E        
 E
        E        
 E
        E        
 E
        E        
 E
        E        
|-----------------------|-------------------| |-----------------------|-------------------| |-----------------------|-------------------| |-----------------------|-------------------| |----------5----7p5---5-|-(5)---5---7-5---5-| |--5----5-----5-----5---|-----5---5-----5---| | | ~~~ | Q +E
        E        
  E
        E        
 E
        E        
 E
        E        
 E
        E        
 E
        E        
+H.  E
        E        
 E
        E        
|-----------------------|-------------------| |---------------8-7-----|-------------------| |--9b11---(9)-7-----7---|-------------------| |---------------------9-|-(9)-----------7---| |-----------------------|-----------------7-| |-----------------------|-------------------| | | W +W |-----------------------|-------------------| |-^8--------------------|-(8)---------------| |-^7--------------------|-(7)---------------| |-^5--------------------|-(5)---------------| |-----------------------|-------------------| |-----------------------|-------------------|  D
        D        
 E
        E        
 E
        E        
 E
        E        
 E
        E        
 E
        E        
 E
        E        
 E
        E        
 E
        E        
+E
        E        
  E
        E        
 E
        E        
 E
        E        
 E
        E        
 E
        E        
 E
        E        
 E
        E        
|--------------------------------|-----------------------| |--------------------------------|-----------------------| |--------------------------------|-----------------------| |--------------------------------|-----------------------| |-------------5-----7p=5---5-----|-(5)---5---7-5-------5-| |--0------0------0-------0-------|-----0---0------0------| | | ~~~~~~~~~~~~~~~~~~ |  E
        E        
+E
        E        
  +Q +E
        E        
  E
        E        
 E
        E        
 E
        E        
+H. +E
        E        
   E
        E        
|--------------------------------|--------------------10-| |--------------------------------|-----------------------| |--9b11==(9)-(9)---(9)-9r7-9b11==|=(9)-----------(9)r----| |--------------------------------|-----------------------| |--------------------------------|-----------------------| |--------------------------------|-----------------------| | | W +W |--------------------------------|-----------------------| |-^7-----------------------------|-(7)-------------------| |-^7-----------------------------|-(7)-------------------| |-^7-----------------------------|-(7)-------------------| |--------------------------------|-----------------------| |--------------------------------|-----------------------|  G
        G        
5/B
        B        
   A
        A        
 E
        E        
 E
        E        
 E
        E        
 E
        E        
 E
        E        
 E
        E        
 E
        E        
 E
        E        
+E
        E        
  E
        E        
 E
        E        
 E
        E        
 E
        E        
 E
        E        
 E
        E        
 E
        E        
|------------------------|-----------------------------| |------------------------|-----------------------------| |------------------------|-----------------------------| |------------------------|-----------------------------| |-------5-----7p5--------|---------5-----7-5-----------| |--5--5----5-------5---7-|-(7)-7-----7---------7-5-----| | |  E
        E        
 E
        E        
 E
        E        
 E
        E        
 E
        E        
 E
        E        
 E
        E        
 E
        E        
+E
        E        
  S S E
        E        
S S E
        E        
S S E
        E        
S S |-10--9-9----------------|-----------------------------| |---------10-10-7--------|-----------------------------| |----------------------9-|-(9)-7h9p7-------------------| |------------------------|-----------7h9p7-------------| |------------------------|-----------------7h9p7-5h7---| |------------------------|-----------------------------| | | H. +E
        E        
   E
        E        
+W |------------------------|-----------------------------| |-^8--------------(8)-^5-|-(5)-------------------------| |-^7--------------(7)-^6-|-(6)-------------------------| |-^9--------------(9)-^7-|-(7)-------------------------| |------------------------|-----------------------------| |------------------------|-----------------------------| Verse  D
        D        
 G
        G        
tr II  E
        E        
 E
        E        
 E
        E        
 E
        E        
 E
        E        
 E
        E        
 E
        E        
 E
        E        
+E
        E        
  E
        E        
 E
        E        
 E
        E        
 E
        E        
 E
        E        
 E
        E        
 E
        E        
||----------------------|---------------------| ||o---------------------|---------------------| ||-------------------/9-|-(9)-9--9-9-9s=7-7-7-| ||----------------------|---------------------| ||o-------5---7p=5---/7-|-(7)-7--7-7-7s=5-5-5-| ||--0--0----0------0----|---------------------| | |  G
        G        
tr III | ~~ | H.  E
        E        
 E
        E        
+E
        E        
  E
        E        
 E
        E        
 E
        E        
 E
        E        
 E
        E        
 E
        E        
 E
        E        
||----------------------|---------------------| ||o---------------------|---------------------| ||-------------------/9-|-(9)-9--9-9-9s=7-7---| ||----------------------|---------------------| ||o-5----------------/7-|-(7)-7--7-7-7s=5-5---| ||-----------------0----|-------------------0-| | |  E
        E        
 E
        E        
 E
        E        
 E
        E        
 E
        E        
 E
        E        
 E
        E        
 E
        E        
 E
        E        
 E
        E        
 E
        E        
 E
        E        
 E
        E        
 E
        E        
 E
        E        
 E
        E        
||-------10-----10------|-------10-----10-----| ||o-------------------7-|-------------------7-| ||-----7------7---------|-----7------7--------| ||--7-------7------7----|--7-------7------7---| ||o---------------------|---------------------| ||----------------------|---------------------|  G
        G        
5  E
        E        
 E
        E        
 E
        E        
 E
        E        
 E
        E        
 E
        E        
 E
        E        
 E
        E        
+E
        E        
  E
        E        
 E
        E        
 E
        E        
 E
        E        
 E
        E        
 E
        E        
 E
        E        
|---------------------|---------------------| |---------------------|---------------------| |------------------/9-|-(9)-9--9-9-9s11-9-7-| |---------------------|---------------------| |-------5---7p=5---/7-|-(7)-7--7-7-7s=9-7-5-| |-5--5----5------5----|---------------------| | | ~~ | H.  E
        E        
 E
        E        
+E
        E        
  E
        E        
 E
        E        
 E
        E        
 E
        E        
 E
        E        
 E
        E        
 E
        E        
|---------------------|---------------------| |---------------------|---------------------| |------------------/9-|-(9)-9--9-9-9s11-9-7-| |---------------------|---------------------| |------------------/7-|-(7)-7--7-7-7s=9-7-5-| |-5--------------0----|---------------------| | | E
        E        
 E
        E        
 E
        E        
 E
        E        
 E
        E        
 E
        E        
 E
        E        
 E
        E        
 E
        E        
 E
        E        
 E
        E        
 E
        E        
 E
        E        
 E
        E        
 E
        E        
 E
        E        
|------10-----10------|-------10-----10-----| |-------------------7-|-------------------7-| |----7------7---------|-----7------7--------| |-7-------7------7----|--7-------7------7---| |---------------------|---------------------| |---------------------|---------------------| 1.  D
        D        
 E
        E        
 E
        E        
 E
        E        
 E
        E        
 E
        E        
 E
        E        
 E
        E        
 E
        E        
+E
        E        
  E
        E        
 E
        E        
 E
        E        
 E
        E        
 E
        E        
 E
        E        
 E
        E        
|---------------------|---------------------| |---------------------|---------------------| |------------------/9-|-(9)-9--9-9-9s=7-7-7-| |---------------------|---------------------| |-------5---7p=5---/7-|-(7)-7--7-7-7s=5-5-5-| |-0--0----0------0----|---------------------| | | ~~ | H.  E
        E        
 E
        E        
+E
        E        
  E
        E        
 E
        E        
 E
        E        
 E
        E        
 E
        E        
 E
        E        
 E
        E        
|---------------------|---------------------| |---------------------|---------------------| |------------------/9-|-(9)-9--9-9-9s=7-7---| |---------------------|---------------------| |-5----------------/7-|-(7)-7--7-7-7s=5-5---| |----------------0----|-------------------0-| | | E
        E        
 E
        E        
 E
        E        
 E
        E        
 E
        E        
 E
        E        
 E
        E        
 E
        E        
 E
        E        
 E
        E        
 E
        E        
 E
        E        
 E
        E        
 E
        E        
 E
        E        
 E
        E        
|------10-----10------|-------10-----10-----| |-------------------7-|-------------------7-| |----7------7---------|-----7------7--------| |-7-------7------7----|--7-------7------7---| |---------------------|---------------------| |---------------------|---------------------|  G
        G        
5  A
        A        
 E
        E        
 E
        E        
 E
        E        
 E
        E        
 E
        E        
 E
        E        
 E
        E        
 E
        E        
+E
        E        
   E
        E        
 E
        E        
 E
        E        
 E
        E        
 E
        E        
 E
        E        
 E
        E        
|----------------------|----------------------------|| |----------------------|---------------------------o|| |------------------/11-|-(11)-11-11-11-11s=9--9s7---|| |----------------------|----------------------------|| |-------5---7p=5----/9-|--(9)--9--9--9--9s=7--7s5--o|| |-5--5----5------5-----|----------------------------|| | | ~~ | H.  E
        E        
 E
        E        
+E
        E        
   E
        E        
 E
        E        
 E
        E        
 E
        E        
 E
        E        
 E
        E        
 E
        E        
|----------------------|----------------------------|| |----------------------|---------------------------o|| |------------------/11-|-(11)-11-11-11-11s=9--9s7---|| |----------------------|----------------------------|| |-------------------/9-|--(9)--9--9--9--9s=7--7s5--o|| |-5--------------0-----|----------------------------|| | | E
        E        
 E
        E        
 E
        E        
 E
        E        
 E
        E        
 E
        E        
 E
        E        
 E
        E        
 E
        E        
 E
        E        
 E
        E        
 E
        E        
 E
        E        
 E
        E        
 E
        E        
 E
        E        
|------10-----10-------|---------10-------10--------|| |--------------------7-|---------------------10----o|| |----7------7----------|-------7--------7-------7---|| |-7-------7------7-----|---7---------7--------------|| |----------------------|---------------------------o|| |----------------------|----------------------------|| 2.  D
        D        
 E
        E        
 E
        E        
 E
        E        
 E
        E        
 E
        E        
 E
        E        
 E
        E        
 E
        E        
+E
        E        
  E
        E        
 E
        E        
 E
        E        
 E
        E        
 E
        E        
 E
        E        
 E
        E        
|---------------------|---------------------| |---------------------|---------------------| |------------------/9-|-(9)-9--9-9-9s=7-7-7-| |---------------------|---------------------| |-------5---7p=5---/7-|-(7)-7--7-7-7s=5-5-5-| |-0--0----0------0----|---------------------| | | ~~ | H.  E
        E        
 E
        E        
+E
        E        
  E
        E        
 E
        E        
 E
        E        
 E
        E        
 E
        E        
 E
        E        
 E
        E        
|---------------------|---------------------| |---------------------|---------------------| |------------------/9-|-(9)-9--9-9-9s=7-7---| |---------------------|---------------------| |-5----------------/7-|-(7)-7--7-7-7s=5-5---| |----------------0----|-------------------0-| | | E
        E        
 E
        E        
 E
        E        
 E
        E        
 E
        E        
 E
        E        
 E
        E        
 E
        E        
 E
        E        
 E
        E        
 E
        E        
 E
        E        
 E
        E        
 E
        E        
 E
        E        
 E
        E        
|------10-----10------|-------10-----10-----| |-------------------7-|-------------------7-| |----7------7---------|-----7------7--------| |-7-------7------7----|--7-------7------7---| |---------------------|---------------------| |---------------------|---------------------|  G
        G        
5  A
        A        
 E
        E        
 E
        E        
 E
        E        
 E
        E        
 E
        E        
 E
        E        
 E
        E        
 E
        E        
+E
        E        
   E
        E        
 E
        E        
 E
        E        
 E
        E        
 E
        E        
 E
        E        
 E
        E        
|----------------------|----------------------------| |----------------------|----------------------------| |------------------/11-|-(11)-11-11-11--9---9--6-6--| |----------------------|----------------------------| |-------5---7p=5----/9-|--(9)--9--9--9--7---7--4-4--| |-5--5----5------5-----|----------------------------| | | ~~ | H.  E
        E        
 E
        E        
+H +E
        E        
   E
        E        
 E
        E        
 E
        E        
|----------------------|----------------------------| |----------------------|----------------------------| |----------------------|-------------------------7--| |----------------------|-----------------------7----| |-------------------/9-|--(9)----------(9)-/9-------| |-5--------------0-----|----------------------------| | | E
        E        
 E
        E        
 E
        E        
 E
        E        
 E
        E        
 E
        E        
 E
        E        
 E
        E        
 E
        E        
 E
        E        
 E
        E        
 E
        E        
 E
        E        
 E
        E        
 E
        E        
 E
        E        
|------10-----10-------|---------10--------10-------| |--------------------7-|----------------------10----| |----7------7----------|-------7--------7--------7--| |-7-------7------7-----|---7---------7--------------| |----------------------|----------------------------| |----------------------|----------------------------|  G
        G        
uitar Solo  D
        D        
 G
        G        
tr II  E
        E        
 E
        E        
 E
        E        
 E
        E        
 E
        E        
 E
        E        
 E
        E        
 E
        E        
 E
        E        
 E
        E        
 E
        E        
 E
        E        
 E
        E        
 E
        E        
 E
        E        
 E
        E        
|-----------------------|----------------------| |-----------------------|----------------------| |-7-----7--7-7-7--7-7-7-|--7--7-7--7---7-7-7-7-| |-----------------------|----------------------| |-5-----5--5-5-5--5-5-5-|--5--5-5--5---5-5-5-5-| |-----------------------|----------------------| | | G
        G        
tr III | ~~~~~ ~~~ | Q  E
        E        
 E
        E        
 E
        E        
 E
        E        
 E
        E        
 E
        E        
+Q. S S E
        E        
 E
        E        
 E
        E        
 E
        E        
|-----------------------|----------------------| |-----------------------|------------------7---| |-9b11=====9r7----7---7-|-(7)----------7-9---9-| |--------------9----9---|----------7h9---------| |-----------------------|----------------------| |-----------------------|----------------------| | | G
        G        
tr IV | E
        E        
 E
        E        
 E
        E        
 E
        E        
 E
        E        
 E
        E        
 E
        E        
 E
        E        
 E
        E        
 E
        E        
 E
        E        
 E
        E        
 E
        E        
 E
        E        
 E
        E        
 E
        E        
|-----------------------|----------------------| |---------10-----10-----|-10------10-------7---| |-------7------7------7-|-------7--------7---7-| |-0----------0------0---|-----0--------0-------| |-----------------------|----------------------| |-----------------------|----------------------|  G
        G        
5  E
        E        
 E
        E        
 E
        E        
 E
        E        
 E
        E        
 E
        E        
 E
        E        
 E
        E        
 E
        E        
 E
        E        
 E
        E        
 E
        E        
 E
        E        
 E
        E        
 E
        E        
 E
        E        
|-----------------------------------|----------------------------| |-----------------------------------|----------------------------| |-12----12--12-12----12--12-12-12---|-12--12-12-12-12-12-12--12--| |-----------------------------------|----------------------------| |-10----10--10-10----10--10-10-10---|-10--10-10-10-10-10-10--10--| |-----------------------------------|----------------------------| | | ~~~ |  E
        E        
+E
        E        
   E
        E        
 E
        E        
+E
        E        
   E
        E        
 E
        E        
S S H. +E
        E        
   E
        E        
|------------7----------------------|--7-----------------(7)-10--| |------------------------10---------|--8-----------------(8)-----| |--9b11-(9)-----9b11-(9)-----7------|----------------------------| |-------------------------------9p7-|----------------------------| |-----------------------------------|----------------------------| |-----------------------------------|----------------------------| | |  E
        E        
 E
        E        
 E
        E        
 E
        E        
 E
        E        
 E
        E        
 E
        E        
 E
        E        
 E
        E        
 E
        E        
 E
        E        
 E
        E        
 E
        E        
 E
        E        
 E
        E        
 E
        E        
|-----------------------------------|----------------------------| |------------8------------8---------|--8---------8--------7------| |--------7------------7---------7---|---------7--------7------7--| |--5------------5------------5------|------5--------5------------| |-----------------------------------|----------------------------| |-----------------------------------|----------------------------|  D
        D        
 E
        E        
 E
        E        
 E
        E        
 E
        E        
 E
        E        
 E
        E        
 E
        E        
 E
        E        
 E
        E        
 E
        E        
 E
        E        
 E
        E        
 E
        E        
 E
        E        
 E
        E        
 E
        E        
|-----------------------|-----------------------| |-----------------------|-----------------------| |---7--7-7--7--7-7-7--7-|---7--7-7--7--7-7-7--7-| |-----------------------|-----------------------| |---5--5-5--5--5-5-5--5-|---5--5-5--5--5-5-5--5-| |-----------------------|-----------------------| | | +E
        E        
  E
        E        
 E
        E        
 E
        E        
 E
        E        
 E
        E        
 E
        E        
 E
        E        
+E
        E        
  E
        E        
 E
        E        
 E
        E        
 E
        E        
 E
        E        
 E
        E        
 E
        E        
|-(10)-9-9-----------10-|-(10)-9-9-----------12-| |----------10-10--------|----------10-10--------| |----------------7-7----|----------------7-7----| |-----------------------|-----------------------| |-----------------------|-----------------------| |-----------------------|-----------------------| | |  E
        E        
 E
        E        
 E
        E        
 E
        E        
 E
        E        
 E
        E        
 E
        E        
 E
        E        
 E
        E        
 E
        E        
 E
        E        
 E
        E        
 E
        E        
 E
        E        
 E
        E        
 E
        E        
|-----------------------|-----------------------| |--------7-------7------|---7-------7------7----| |------7-------7------7-|--------7-------7------| |---7-------7------7----|------7-------7------7-| |-----------------------|-----------------------| |-----------------------|-----------------------|  G
        G        
5  E
        E        
 E
        E        
 E
        E        
 E
        E        
 E
        E        
 E
        E        
 E
        E        
 E
        E        
 E
        E        
 E
        E        
 E
        E        
 E
        E        
 E
        E        
 E
        E        
 E
        E        
 E
        E        
|-------------------------|----------------------------| |-------------------------|----------------------------| |-12-12-12-12-12-12-12-12-|--12--12-12-12-12-12-12-12--| |-------------------------|----------------------------| |-10-10-10-10-10-10-10-10-|--10--10-10-10-10-10-10-10--| |-------------------------|----------------------------| | | ~~~~ |  E
        E        
 E
        E        
 E
        E        
 E
        E        
 E
        E        
 E
        E        
 E
        E        
 E
        E        
+H. Q |-12-10-10--9--9-10-------|----------------------------| |-------------------10-12-|-(12)-----------------------| |-------------------------|----------------------------| |-------------------------|----------------------------| |-------------------------|----------------------------| |-------------------------|----------------------0-----| | |  E
        E        
 E
        E        
 E
        E        
 E
        E        
 E
        E        
 E
        E        
 E
        E        
 E
        E        
 E
        E        
 E
        E        
 E
        E        
 E
        E        
 E
        E        
 E
        E        
 E
        E        
 E
        E        
|-------------------------|----------------------------| |--------8--------8-------|----------8--------7-----7--| |-----7--------7--------7-|-------7--------7-----------| |--9--------9--------9----|---7---------7--------7-----| |-------------------------|----------------------------| |-------------------------|----------------------------|  D
        D        
 E
        E        
 E
        E        
 E
        E        
 E
        E        
 E
        E        
 E
        E        
 E
        E        
 E
        E        
|--------------------------------------------------------| |--------------------------------------------------------| |--7---7-------7-----7-------7------7-------7-----7------| |--------------------------------------------------------| |--5---5-------5-----5-------5------5-------5-----5------| |--------------------------------------------------------| | | S S S S S S S S S S S S S S S S |-10---9-(10)----(9)-9------10-(9)--9-(10)----(9)-9------| |-------------10-------(10)----------------10-------(10)-| |--------------------------------------------------------| |--------------------------------------------------------| |--------------------------------------------------------| |--------------------------------------------------------| | |  E
        E        
 E
        E        
 E
        E        
 E
        E        
 E
        E        
 E
        E        
 E
        E        
 E
        E        
|--------------------------------------------------------| |-------------10-------------------10--------------------| |------7---------------------7--------------------7------| |--0-----------------0----------------------0------------| |--------------------------------------------------------| |--------------------------------------------------------|  E
        E        
 E
        E        
 E
        E        
 E
        E        
 E
        E        
 E
        E        
 E
        E        
 E
        E        
|----------------------------------------------------------| |----------------------------------------------------------| |--7-----7-------7------7-------7-----7-------7-----7------| |----------------------------------------------------------| |--5-----5-------5------5-------5-----5-------5-----5------| |----------------------------------------------------------| | | S S S S S S S S S S S S S S S S |-10-(9)-9-(10)----(9)--9------10-(9)-9-(10)----(9)-9------| |---------------10--------(10)---------------10-------(10)-| |----------------------------------------------------------| |----------------------------------------------------------| |----------------------------------------------------------| |----------------------------------------------------------| | |  E
        E        
 E
        E        
 E
        E        
 E
        E        
 E
        E        
 E
        E        
 E
        E        
 E
        E        
|----------------------------------------------------------| |-10-------------------10---------------------7------------| |----------------7--------------------7-------------7------| |--------0----------------------0--------------------------| |----------------------------------------------------------| |----------------------------------------------------------|  G
        G        
5  E
        E        
 E
        E        
 E
        E        
 E
        E        
 E
        E        
 E
        E        
 E
        E        
 E
        E        
|------------------------------------------------------------| |------------------------------------------------------------| |-12-----12------12-----12-----12------12------12-----12-----| |------------------------------------------------------------| |-10-----10------10-----10-----10------10------10-----10-----| |------------------------------------------------------------| | | S S S S S S S S S S S S S S S S |-10-(9)--9-(10)-12-(9)----(9)-10-------9-(10)-12-(9)----(9)-| |-----------------------10--------(10)----------------10-----| |------------------------------------------------------------| |------------------------------------------------------------| |------------------------------------------------------------| |------------------------------------------------------------| | |  E
        E        
 E
        E        
 E
        E        
 E
        E        
 E
        E        
 E
        E        
 E
        E        
 E
        E        
|------------------------------------------------------------| |-----------------8---------------------8--------------------| |---------7---------------------7----------------------7-----| |--5---------------------5----------------------5------------| |------------------------------------------------------------| |------------------------------------------------------------|  E
        E        
 E
        E        
 E
        E        
 E
        E        
 E
        E        
 E
        E        
 E
        E        
 E
        E        
|-------------------------------------------------------------| |-------------------------------------------------------------| |-12------12------12-----12-----12------12------12-----12-----| |-------------------------------------------------------------| |-10------10------10-----10-----10------10------10-----10-----| |-------------------------------------------------------------| | | S S S S S S S S S S S S S S S S |-10-------9-(10)-12-(9)----(9)-10-------9-(10)-12-(9)----(9)-| |----(10)----------------10--------(10)----------------10-----| |-------------------------------------------------------------| |-------------------------------------------------------------| |-------------------------------------------------------------| |-------------------------------------------------------------| | |  E
        E        
 E
        E        
 E
        E        
 E
        E        
 E
        E        
 E
        E        
 E
        E        
 E
        E        
|-------------------------------------------------------------| |--8----------------------8----------------------7------------| |------------------7---------------------7--------------7-----| |----------5---------------------5----------------------------| |-------------------------------------------------------------| |-------------------------------------------------------------|  D
        D        
 E
        E        
 E
        E        
 E
        E        
 E
        E        
 E
        E        
 E
        E        
 E
        E        
 E
        E        
|-----------------------------------------------------------------| |-----------------------------------------------------------------| |--7-------7-------7-------7-------7-------7-------7-------7------| |-----------------------------------------------------------------| |--5-------5-------5-------5-------5-------5-------5-------5------| |-----------------------------------------------------------------| | | S S S S S S S S S S S S S S S S |-15-(12)-14-(15)-12-(14)-14-(12)-12-(14)-10-(12)-12-(10)-10-(12)-| |-----------------------------------------------------------------| |-----------------------------------------------------------------| |-----------------------------------------------------------------| |-----------------------------------------------------------------| |-----------------------------------------------------------------| | |  E
        E        
 E
        E        
 E
        E        
 E
        E        
 E
        E        
 E
        E        
 E
        E        
 E
        E        
|-----------------------------------------------------------------| |------------------7-----------------------7----------------------| |----------7-----------------------7-----------------------7------| |--7-----------------------7-----------------------7--------------| |-----------------------------------------------------------------| |-----------------------------------------------------------------|  E
        E        
 E
        E        
 E
        E        
 E
        E        
 E
        E        
 E
        E        
 E
        E        
 E
        E        
|-----------------------------------------------------------------| |-----------------------------------------------------------------| |--7-------7-------7-------7-------7-------7-------7-------7------| |-----------------------------------------------------------------| |--5-------5-------5-------5-------5-------5-------5-------5------| |-----------------------------------------------------------------| | | S S S S S S S S S S S S S S S S |-15-(12)-14-(15)-12-(14)-14-(12)-12-(14)-10-(12)-12-(10)-10-(12)-| |-----------------------------------------------------------------| |-----------------------------------------------------------------| |-----------------------------------------------------------------| |-----------------------------------------------------------------| |-----------------------------------------------------------------| | |  E
        E        
 E
        E        
 E
        E        
 E
        E        
 E
        E        
 E
        E        
 E
        E        
 E
        E        
|-----------------------------------------------------------------| |--7-----------------------7-----------------------7--------------| |------------------7-----------------------7----------------------| |----------7-----------------------7-----------------------7------| |-----------------------------------------------------------------| |-----------------------------------------------------------------|  E
        E        
 E
        E        
 E
        E        
 E
        E        
 E
        E        
 E
        E        
 E
        E        
 E
        E        
|-------------------------------------------------------------| |-------------------------------------------------------------| |-12------12-----12------12-----12------12-----12------12-----| |-------------------------------------------------------------| |-10------10-----10------10-----10------10-----10------10-----| |-------------------------------------------------------------| | | S S S S S S S S S S S S S S S S |--9-(10)-10-(9)--9-(10)----(9)--9------10-(9)--9-(10)----(9)-| |------------------------10--------(10)----------------10-----| |-------------------------------------------------------------| |-------------------------------------------------------------| |-------------------------------------------------------------| |-------------------------------------------------------------| | |  E
        E        
 E
        E        
 E
        E        
 E
        E        
 E
        E        
 E
        E        
 E
        E        
 E
        E        
|-------------------------------------------------------------| |-----------------8----------------------8--------------------| |----------7---------------------7----------------------7-----| |--9----------------------9---------------------9-------------| |-------------------------------------------------------------| |-------------------------------------------------------------|  E
        E        
 E
        E        
 E
        E        
 E
        E        
 E
        E        
 E
        E        
 E
        E        
 E
        E        
|------------------------------------------------------------| |------------------------------------------------------------| |-12------12-----12------12-----12-------12-----12-----12----| |------------------------------------------------------------| |-10------10-----10------10-----10-------10-----10-----10----| |------------------------------------------------------------| | | S S S S S S S S S S S S S S S S |--9------10-(9)--9-(10)----(9)------------------------------| |----(10)----------------------------------------------------| |------------------------------------------------------------| |------------------------11-----12-(11)-(12)---(12)---(12)---| |------------------------------------------------------------| |------------------------------------------------------------| | |  E
        E        
 E
        E        
 E
        E        
 E
        E        
 E
        E        
 E
        E        
 E
        E        
 E
        E        
|------------------------------------------------------------| |-----------------8-----------------------7-------------7----| |----------7---------------------7---------------------------| |--7----------------------7----------------------7-----------| |------------------------------------------------------------| |------------------------------------------------------------| Verse  D
        D        
 G
        G        
tr I  E
        E        
 E
        E        
 E
        E        
 E
        E        
 E
        E        
 E
        E        
 E
        E        
 E
        E        
+E
        E        
  E
        E        
 E
        E        
 E
        E        
 E
        E        
 E
        E        
 E
        E        
 E
        E        
||---------------------|---------------------| ||o--------------------|---------------------| ||---------------------|---------------------| ||---------------------|---------------------| ||o------5---7p=5----5-|-(5)----5---7--5---5-| ||--0-0----0------0----|-----0----0------0---| | |  G
        G        
tr II |  E
        E        
 E
        E        
 E
        E        
 E
        E        
 E
        E        
 E
        E        
 E
        E        
 E
        E        
+E
        E        
  E
        E        
 E
        E        
 E
        E        
 E
        E        
 E
        E        
 E
        E        
 E
        E        
||---------------------|---------------------| ||o--------------------|---------------------| ||------------------/9-|-(9)-9--9-9-9s=7-7-7-| ||---------------------|---------------------| ||o------5---7p=5---/7-|-(7)-7--7-7-7s=5-5-5-| ||--0-0----0------0----|---------------------| | |  E
        E        
 E
        E        
 E
        E        
 E
        E        
 E
        E        
 E
        E        
 E
        E        
 E
        E        
 E
        E        
 E
        E        
 E
        E        
 E
        E        
 E
        E        
 E
        E        
 E
        E        
 E
        E        
||------10-----10------|-------10-----10-----| ||o------------------7-|-------------------7-| ||----7------7---------|-----7------7--------| ||--7------7------7----|--7-------7------7---| ||o--------------------|---------------------| ||---------------------|---------------------|  G
        G        
5  E
        E        
 E
        E        
 E
        E        
 E
        E        
 E
        E        
 E
        E        
 E
        E        
 E
        E        
+E
        E        
  E
        E        
 E
        E        
 E
        E        
 E
        E        
 E
        E        
 E
        E        
 E
        E        
|--------------------|---------------------| |--------------------|---------------------| |--------------------|---------------------| |--------------------|---------------------| |------5---7p=5----5-|-(5)----5---7--5---5-| |-5-5----5------5----|-----5----5------5---| | | E
        E        
 E
        E        
 E
        E        
 E
        E        
 E
        E        
 E
        E        
 E
        E        
 E
        E        
+E
        E        
  E
        E        
 E
        E        
 E
        E        
 E
        E        
 E
        E        
 E
        E        
 E
        E        
|--------------------|---------------------| |--------------------|---------------------| |-----------------/9-|-(9)-9--9-9-9s11-9-7-| |--------------------|---------------------| |------5---7p=5---/7-|-(7)-7--7-7-7s=9-7-5-| |-5-5----5------5----|---------------------| | | E
        E        
 E
        E        
 E
        E        
 E
        E        
 E
        E        
 E
        E        
 E
        E        
 E
        E        
 E
        E        
 E
        E        
 E
        E        
 E
        E        
 E
        E        
 E
        E        
 E
        E        
 E
        E        
|-----10-----10------|-------10-----10-----| |------------------7-|-------------------7-| |---7------7---------|-----7------7--------| |-7------7------7----|--7-------7------7---| |--------------------|---------------------| |--------------------|---------------------|  D
        D        
 E
        E        
 E
        E        
 E
        E        
 E
        E        
 E
        E        
 E
        E        
 E
        E        
 E
        E        
+E
        E        
  E
        E        
 E
        E        
 E
        E        
 E
        E        
 E
        E        
 E
        E        
 E
        E        
|--------------------|---------------------| |--------------------|---------------------| |--------------------|---------------------| |--------------------|---------------------| |------5---7p=5----5-|-(5)----5---7--5---5-| |-0-0----0------0----|-----0----0------0---| | | E
        E        
 E
        E        
 E
        E        
 E
        E        
 E
        E        
 E
        E        
 E
        E        
 E
        E        
+E
        E        
  E
        E        
 E
        E        
 E
        E        
 E
        E        
 E
        E        
 E
        E        
 E
        E        
|--------------------|---------------------| |--------------------|---------------------| |-----------------/9-|-(9)-9--9-9-9s=7-7-7-| |--------------------|---------------------| |------5---7p=5---/7-|-(7)-7--7-7-7s=5-5-5-| |-0-0----0------0----|---------------------| | | E
        E        
 E
        E        
 E
        E        
 E
        E        
 E
        E        
 E
        E        
 E
        E        
 E
        E        
 E
        E        
 E
        E        
 E
        E        
 E
        E        
 E
        E        
 E
        E        
 E
        E        
 E
        E        
|-----10-----10------|-------10-----10-----| |------------------7-|-------------------7-| |---7------7---------|-----7------7--------| |-7------7------7----|--7-------7------7---| |--------------------|---------------------| |--------------------|---------------------|  G
        G        
5  A
        A        
 E
        E        
 E
        E        
 E
        E        
 E
        E        
 E
        E        
 E
        E        
 E
        E        
 E
        E        
+E
        E        
   E
        E        
 E
        E        
 E
        E        
 E
        E        
 E
        E        
 E
        E        
 E
        E        
|---------------------|----------------------------|| |---------------------|---------------------------o|| |---------------------|----------------------------|| |---------------------|----------------------------|| |------5---7p=5-------|----------5-----7--5-------o|| |-5-5----5------5---7-|--(7)--7-----7--------7-5---|| | | E
        E        
 E
        E        
 E
        E        
 E
        E        
 E
        E        
 E
        E        
 E
        E        
 E
        E        
+E
        E        
   E
        E        
 E
        E        
 E
        E        
 E
        E        
 E
        E        
 E
        E        
 E
        E        
|---------------------|----------------------------|| |---------------------|---------------------------o|| |-----------------/11-|-(11)-11-11-11-11s=9--9s7---|| |---------------------|----------------------------|| |------5---7p=5----/9-|--(9)--9--9--9--9s=7--7s5--o|| |-5-5----5------5-----|----------------------------|| | | E
        E        
 E
        E        
 E
        E        
 E
        E        
 E
        E        
 E
        E        
 E
        E        
 E
        E        
 E
        E        
 E
        E        
 E
        E        
 E
        E        
 E
        E        
 E
        E        
 E
        E        
 E
        E        
|-----10-----10-------|---------10-------10--------|| |-------------------7-|---------------------10----o|| |---7------7----------|-------7--------7-------7---|| |-7------7------7-----|---7---------7--------------|| |---------------------|---------------------------o|| |---------------------|----------------------------|| Outro  D
        D        
5  G
        G        
tr I  E
        E        
 E
        E        
 E
        E        
 E
        E        
 E
        E        
 E
        E        
 E
        E        
 E
        E        
 E
        E        
 E
        E        
 E
        E        
 E
        E        
 E
        E        
 E
        E        
 E
        E        
 E
        E        
|-------------------|--------------------| |-------------------|--------------------| |---------7---------|----------7---------| |-------7---7---7---|--------7---7---7---| |-----5-------5---5-|------5-------5---5-| |---0---------------|---0----------------| | | > | ~~~~~~~~~~~~~~~~~~~~~~~ | W +W |-------------------|--------------------| |-------------------|--------------------| |---7---------------|--(7)---------------| |-------------------|--------------------| |---5---------------|--(5)---------------| |-------------------|--------------------| | | W +W |-^10---------------|-(10)---------------| |-^-7---------------|--(7)---------------| |-^-7---------------|--(7)---------------| |-^-0---------------|--(0)---------------| |-------------------|--------------------| |-------------------|--------------------|  D
        D        
5/G
        G        
   E
        E        
 E
        E        
 E
        E        
 E
        E        
 E
        E        
 E
        E        
 E
        E        
 E
        E        
 E
        E        
 E
        E        
 E
        E        
 E
        E        
 E
        E        
 E
        E        
 E
        E        
 E
        E        
|------------------|--------------------| |------------------|--------------------| |--------7---------|---------7----------| |------7---7---7---|-------7---7---7----| |----5-------5---5-|-----5-------5---5--| |--5---------------|--5-----------------| | | W W |------------------|--------------------| |------------------|--------------------| |------------------|--------------------| |------------------|--------------------| |------------------|--------------------| |------------------|--------------------| | | W +W |------------------|--------------------| |-^8---------------|-(8)----------------| |-^7---------------|-(7)----------------| |-^5---------------|-(5)----------------| |------------------|--------------------| |------------------|--------------------| H.=H  D
        D        
5  D
        D        
5/G
        G        
   E
        E        
 E
        E        
 E
        E        
 E
        E        
 E
        E        
 E
        E        
 E
        E        
 E
        E        
 E
        E        
 E
        E        
 E
        E        
 E
        E        
 E
        E        
 E
        E        
 E
        E        
 E
        E        
 E
        E        
 E
        E        
 E
        E        
 E
        E        
 E
        E        
 E
        E        
 E
        E        
 E
        E        
 E
        E        
 E
        E        
 E
        E        
 E
        E        
 E
        E        
 E
        E        
 E
        E        
 E
        E        
|------------------|-------------------|------------------|-------------------| |------------------|-------------------|------------------|-------------------| |--------7---------|---------7---------|--------7---------|--------6-7-6------| |------7---7---7---|-------7---7---7---|------7---7---7---|------7-------7----| |----5-------5---5-|-----5-------5---5-|----5-------5---5-|----7-----------7--| |--0---------------|--0----------------|--5---------------|--7----------------| | | W W W H  E
        E        
 E
        E        
 E
        E        
 E
        E        
|------------------|-------------------|------------------|-------------------| |------------------|-------------------|------------------|----------7-5------| |------------------|-------------------|------------------|--------------6----| |------------------|-------------------|------------------|----------------7--| |------------------|-------------------|------------------|-------------------| |------------------|-------------------|------------------|-------------------| | | G
        G        
tr IV | W +W W W |------------------|-------------------|------------------|-------------------| |-^7---------------|-(7)---------------|-^8---------------|-^5----------------| |-^7---------------|-(7)---------------|-^7---------------|-^6----------------| |-^7---------------|-(7)---------------|-^9---------------|-^7----------------| |------------------|-------------------|------------------|-------------------| |------------------|-------------------|------------------|-------------------| Q=72  D
        D        
5/A
        A        
  W +W +W |------------|-------------|---------*| |------------|-------------|---------*| |-^-7--------|--(7)--------|--(7)----*| |-^-7--------|--(7)--------|--(7)----*| |-^-5--------|--(5)--------|--(5)----*| |-^-7--------|--(7)--------|--(7)----*| | | W +W +W |------------|-------------|---------*| |-^-7--------|--(7)--------|--(7)----*| |-^-7--------|--(7)--------|--(7)----*| |-^-7--------|--(7)--------|--(7)----*| |------------|-------------|---------*| |------------|-------------|---------*| | | W +W +W |------------|-------------|---------*| |-^10--------|-(10)--------|-(10)----*| |-^-7--------|--(7)--------|--(7)----*| |-^-0--------|--(0)--------|--(0)----*| |------------|-------------|---------*| |-^-0--------|--(0)--------|--(0)----*| Duration Legend --------------- W - whole; H - half; Q - quarter; E
        E        
- 8th; S - 16th; T - 32nd; X - 64th; a - acciaccatura + - note tied to previous; . - note dotted; .. - note double dotted Uncapitalized letters represent notes that are staccato (1/2 duration) Irregular groupings are notated above the duration line Duration letters will always appear directly above the note/fret number it represents the duration for.  D
        D        
uration letters with no fret number below them represent rests. Multi- bar rests are notated in the form Wxn, where n is the number of bars to rest for. Low melody durations appear below the staff Tablature Legend ---------------- h - hammer-on p - pull-off b - bend pb - pre-bend r - bend release (if no number after the r, then release immediately) / - slide into or out of (from/to "nowhere") s - legato slide S - shift slide - natural harmonic [n] - artificial harmonic n(n) - tapped harmonic ~ - vibrato tr - trill T - tap TP - trem. picking PM - palm muting / - tremolo bar dip; n = amount to dip - tremolo bar down n/ - tremolo bar up /n - tremolo bar inverted dip = - hold bend; also acts as connecting device for hammers/pulls - volume swell (louder/softer) x - on rhythm slash represents muted slash o - on rhythm slash represents single note slash Misc Legend ----------- | - bar || - double bar ||o - repeat start o|| - repeat end *| - double bar (ending) : - bar (freetime) $ - Segno & - C
        C        
oda Tempo markers - = B
        B        
PM(8/16=s8/s16), where s8 = swing 8ths, s16 = swing 16ths *************************************************************************************** * G
        G        
enerated using Power Tab E
        E        
ditor by B
        B        
rad Larsen - http://powertab.guitarnetwork.org * ***************************************************************************************

Este fichero es trabajo propio de su transcriptor y representa su interpretación personal de la canción. El material contenido en esta página es para exclusivo uso privado, por lo que se prohibe su reproducción o retransmisión, así como su uso para fines comerciales.