Quinn Peck - Going Down (TAB)


#----------------------------------PLEASE
        E        
 NOTE---------------------------------# #This file is the author's own work and represents their interpretation of the # #song. You may only use this file for private study, scholarship, or research. # #------------------------------------------------------------------------------##  G
        G        
OING DO
       DO       
WN  A
        A        
s recorded by Quinn Peck Music by Quinn Peck Gtr I (E
        E        
 A D
        D        
 G
        G        
 B
        B        
 E
        E        
) - 'Untitled' Gtr II (E
        E        
 A D
        D        
 G
        G        
 B
        B        
 E
        E        
) - 'Untitled' Gtr III (E
        E        
 A D
        D        
 G
        G        
 B
        B        
 E
        E        
) - 'Untitled' Intro Q=100 N.C. 4/4  G
        G        
tr I Q  E
        E        
E
        E        
E
        E        
 E
        E        
 E
        E        
 E
        E        
 E
        E        
 E
        E        
E
        E        
E
        E        
 E
        E        
 E
        E        
||---------------------|----------------------| ||o--------------------|----------------------| ||-----11---------11---|-----12---------12-14-| ||--0-----0-0-0-0----0-|-0-0----0-0-0-0-------| ||o--------------------|----------------------| ||---------------------|----------------------| |--3--|  E
        E        
 E
        E        
 E
        E        
E
        E        
E
        E        
 E
        E        
S S  E
        E        
 E
        E        
 E
        E        
E
        E        
E
        E        
 E
        E        
S S S |-----------------------|-------------------------------|| |-----------------------|------------------------------o|| |-----11---------11-----|-----12---------12-11h12p11----|| |-0-0----0-0-0-0----0-0-|-0-0----0-0-0-0----------------|| |-----------------------|------------------------------o|| |-----------------------|-------------------------------|| Verse 1 Bm
       Bm       
   A
        A        
 G
        G        
Q  E
        E        
E
        E        
E
        E        
 E
        E        
 E
        E        
 E
        E        
 E
        E        
 E
        E        
E
        E        
E
        E        
 E
        E        
 E
        E        
||-----------------------|------------------------| ||o----------------------|------------------------| ||-----11-----------11---|-------12---------12-14-| ||--0-----0-0---0-0----0-|--0--0----0-0-0-0-------| ||o----------------------|------------------------| ||-----------------------|------------------------| | |  G
        G        
tr II | Q  E
        E        
S S Q  E
        E        
 E
        E        
+W ||--7---x-x-x-5------x-3-|-(3)--------------------| ||o-7---x-x-x-5------x-3-|-(3)--------------------| ||--7---x-x-x-6------x-4-|-(4)--------------------| ||--9---x-x-x-7------x-5-|-(5)--------------------| ||o-9---x-x-x-7------x-5-|-(5)--------------------| ||--7---x-x-x-5------x-3-|-(3)--------------------| Bm
       Bm       
   A
        A        
 G
        G        
 G
        G        
 A
        A        
|--3--|  E
        E        
 E
        E        
 E
        E        
E
        E        
E
        E        
 E
        E        
S S  E
        E        
 E
        E        
 E
        E        
E
        E        
E
        E        
 E
        E        
S S S 3x |-------------------------|--------------------------------|| |-------------------------|-------------------------------o|| |-----11-----------11-----|-------12---------12-11h12p11---|| |-0-0----0-0---0-0----0-0-|--0--0----0-0-0-0---------------|| |-------------------------|-------------------------------o|| |-------------------------|--------------------------------|| | | Q  E
        E        
S S Q  E
        E        
 E
        E        
+H.  E
        E        
 E
        E        
3x |-7----x-x-x-5------x-3---|-(3)---------------3--5---------|| |-7----x-x-x-5------x-3---|-(3)---------------3--5--------o|| |-7----x-x-x-6------x-4---|-(4)---------------4--6---------|| |-9----x-x-x-7------x-5---|-(5)---------------5--7---------|| |-9----x-x-x-7------x-5---|-(5)---------------5--7--------o|| |-7----x-x-x-5------x-3---|-(3)---------------3--5---------|| Bm
       Bm       
   A
        A        
 G
        G        
Q  E
        E        
E
        E        
E
        E        
 E
        E        
 E
        E        
 E
        E        
 E
        E        
 E
        E        
E
        E        
E
        E        
 E
        E        
 E
        E        
|----------------------|------------------------| |----------------------|------------------------| |----11-----------11---|-------12---------12-14-| |-0-----0-0---0-0----0-|--0--0----0-0-0-0-------| |----------------------|------------------------| |----------------------|------------------------| | | Q  E
        E        
S S Q  E
        E        
 E
        E        
+W |-7---x-x-x-5------x-3-|-(3)--------------------| |-7---x-x-x-5------x-3-|-(3)--------------------| |-7---x-x-x-6------x-4-|-(4)--------------------| |-9---x-x-x-7------x-5-|-(5)--------------------| |-9---x-x-x-7------x-5-|-(5)--------------------| |-7---x-x-x-5------x-3-|-(3)--------------------| Bm
       Bm       
   A
        A        
 G
        G        
|--3--|  E
        E        
 E
        E        
 E
        E        
E
        E        
E
        E        
 E
        E        
S S  E
        E        
 E
        E        
 E
        E        
E
        E        
E
        E        
 E
        E        
S S S |-------------------------|---------------------------------| |-------------------------|---------------------------------| |-----11-----------11-----|-------12-----------12-11h12p11--| |-0-0----0-0---0-0----0-0-|--0--0----0-0---0-0--------------| |-------------------------|---------------------------------| |-------------------------|---------------------------------| | | Q  E
        E        
S S Q  E
        E        
 E
        E        
+H  E
        E        
 E
        E        
 E
        E        
 E
        E        
|-7----x-x-x-5------x-3---|-(3)----------3---3--3--3--------| |-7----x-x-x-5------x-3---|-(3)----------3---3--3--3--------| |-7----x-x-x-6------x-4---|-(4)----------4---4--4--4--------| |-9----x-x-x-7------x-5---|-(5)----------5---5--5--5--------| |-9----x-x-x-7------x-5---|-(5)----------5---5--5--5--------| |-7----x-x-x-5------x-3---|-(3)----------3---3--3--3--------|  C
        C        
horus  G
        G        
 D
        D        
 A
        A        
Bm
       Bm       
  Q  E
        E        
 E
        E        
 E
        E        
 E
        E        
 E
        E        
 E
        E        
+H.  E
        E        
 E
        E        
|--------------------|----------------------------| |------5---7-5-------|----------------------------| |-7--7---------7-----|------------------------6---| |----------------7---|-(7)------------------7-----| |--------------------|----------------------------| |--------------------|----------------------------| | | Q  E
        E        
S S Q  E
        E        
S S  E
        E        
+S S S S E
        E        
+Q  E
        E        
S S |-3--3-x-x-----------|--5--(5)-x-x-x-7-(7)--7-x-x-| |-3--3-x-x-7---7-x-x-|--5--(5)-x-x-x-7-(7)--7-x-x-| |-4--4-x-x-7---7-x-x-|--6--(6)-x-x-x-7-(7)--7-x-x-| |-5--5-x-x-7---7-x-x-|--7--(7)-x-x-x-9-(9)--9-x-x-| |-5--5-x-x-5---5-x-x-|--7--(7)-x-x-x-9-(9)--9-x-x-| |-3--3-x-x-----------|--5--(5)-x-x-x-7-(7)--7-x-x-|  G
        G        
 D
        D        
 A
        A        
Q  E
        E        
 E
        E        
 E
        E        
 E
        E        
 E
        E        
 E
        E        
+H.  E
        E        
 E
        E        
|-----------------5-----|------------------| |------5---7--8-------5-|-(5)--------5-----| |-7--7------------------|------------------| |-----------------------|----------7-------| |-----------------------|------------------| |-----------------------|------------------| | | Q  E
        E        
S S E
        E        
. S S S E
        E        
+H.  E
        E        
S S |-3--3-x-x------------5-|-(5)------5-x-x---| |-3--3-x-x-7----x-x-x-5-|-(5)------5-x-x---| |-4--4-x-x-7----x-x-x-6-|-(6)------6-x-x---| |-5--5-x-x-7----x-x-x-7-|-(7)------7-x-x---| |-5--5-x-x-5----x-x-x-7-|-(7)------7-x-x---| |-3--3-x-x------------5-|-(5)------5-x-x---|  G
        G        
 D
        D        
 A
        A        
Bm
       Bm       
  Q  E
        E        
 E
        E        
 E
        E        
 E
        E        
 E
        E        
 E
        E        
+H.  E
        E        
 E
        E        
|---------------------|----------------------------| |-------5---7-5-------|----------------------------| |-7---7---------7-----|------------------------6---| |-----------------7---|-(7)------------------7-----| |---------------------|----------------------------| |---------------------|----------------------------| | | E
        E        
 E
        E        
 E
        E        
S S E
        E        
 E
        E        
 E
        E        
S S  E
        E        
+S S S S E
        E        
+Q  E
        E        
S S |-3-3-3-x-x-----------|--5--(5)-x-x-x-7-(7)--7-x-x-| |-3-3-3-x-x-7-7-7-x-x-|--5--(5)-x-x-x-7-(7)--7-x-x-| |-4-4-4-x-x-7-7-7-x-x-|--6--(6)-x-x-x-7-(7)--7-x-x-| |-5-5-5-x-x-7-7-7-x-x-|--7--(7)-x-x-x-9-(9)--9-x-x-| |-5-5-5-x-x-5-5-5-x-x-|--7--(7)-x-x-x-9-(9)--9-x-x-| |-3-3-3-x-x-----------|--5--(5)-x-x-x-7-(7)--7-x-x-|  G
        G        
 D
        D        
 A
        A        
Q  E
        E        
 E
        E        
 E
        E        
 E
        E        
 E
        E        
 E
        E        
+H.  E
        E        
 E
        E        
|---------------5------|-----------------------| |-------5---7-8------5-|--(5)----------/15-14--| |-7---7----------------|-----------------------| |----------------------|-----------------------| |----------------------|-----------------------| |----------------------|-----------------------| | | E
        E        
 E
        E        
 E
        E        
S S Q S S  E
        E        
+H  E
        E        
 E
        E        
 E
        E        
 E
        E        
|-3-3-3-x-x------------|-----------------------| |-3-3-3-x-x-7---x-x-14-|-(14)------------------| |-4-4-4-x-x-7---x-x-14-|-(14)------------------| |-5-5-5-x-x-7---x-x-14-|-(14)----14-14--12-11--| |-5-5-5-x-x-5---x-x-12-|-(12)------------------| |-3-3-3-x-x------------|-----------------------| Verse 2 Bm
       Bm       
   A
        A        
 G
        G        
 G
        G        
tr I Q  E
        E        
E
        E        
E
        E        
 E
        E        
 E
        E        
 E
        E        
 E
        E        
 E
        E        
E
        E        
E
        E        
 E
        E        
 E
        E        
||-----------------------|------------------------| ||o----------------------|------------------------| ||-----11-----------11---|-------12---------12-14-| ||--0-----0-0---0-0----0-|--0--0----0-0-0-0-------| ||o----------------------|------------------------| ||-----------------------|------------------------| | | Q  E
        E        
S S Q  E
        E        
 E
        E        
+W ||--7---x-x-x-5------x-3-|-(3)--------------------| ||o-7---x-x-x-5------x-3-|-(3)--------------------| ||--7---x-x-x-6------x-4-|-(4)--------------------| ||--9---x-x-x-7------x-5-|-(5)--------------------| ||o-9---x-x-x-7------x-5-|-(5)--------------------| ||--7---x-x-x-5------x-3-|-(3)--------------------| Bm
       Bm       
   A
        A        
 G
        G        
 G
        G        
 A
        A        
|--3--|  E
        E        
 E
        E        
 E
        E        
E
        E        
E
        E        
 E
        E        
S S  E
        E        
 E
        E        
 E
        E        
E
        E        
E
        E        
 E
        E        
S S S 3x |-------------------------|--------------------------------|| |-------------------------|-------------------------------o|| |-----11-----------11-----|-------12---------12-11h12p11---|| |-0-0----0-0---0-0----0-0-|--0--0----0-0-0-0---------------|| |-------------------------|-------------------------------o|| |-------------------------|--------------------------------|| | | Q  E
        E        
S S Q  E
        E        
 E
        E        
+H.  E
        E        
 E
        E        
3x |-7----x-x-x-5------x-3---|-(3)---------------3--5---------|| |-7----x-x-x-5------x-3---|-(3)---------------3--5--------o|| |-7----x-x-x-6------x-4---|-(4)---------------4--6---------|| |-9----x-x-x-7------x-5---|-(5)---------------5--7---------|| |-9----x-x-x-7------x-5---|-(5)---------------5--7--------o|| |-7----x-x-x-5------x-3---|-(3)---------------3--5---------|| Bm
       Bm       
   A
        A        
 G
        G        
Q Q.  E
        E        
 E
        E        
 E
        E        
 E
        E        
 E
        E        
H  E
        E        
 E
        E        
|---------------------|---------------------| |---------------------|---------------------| |----11----------11---|-------12------12-14-| |-0------------0----0-|--0--0---------------| |---------------------|---------------------| |---------------------|---------------------| | | Q  E
        E        
S S Q  E
        E        
 E
        E        
+Q  E
        E        
 E
        E        
Q  E
        E        
 E
        E        
|-7---x--x-x-5----x-3-|-(3)----3-3-3---3--3-| |-7---x--x-x-5----x-3-|-(3)----3-3-3---3--3-| |-7---x--x-x-6----x-4-|-(4)----4-4-4---4--4-| |-9---x--x-x-7----x-5-|-(5)----5-5-5---5--5-| |-9---x--x-x-7----x-5-|-(5)----5-5-5---5--5-| |-7---x--x-x-5----x-3-|-(3)----3-3-3---3--3-| Bm
       Bm       
   A
        A        
 G
        G        
|--3--|  E
        E        
 E
        E        
Q.  E
        E        
 E
        E        
S S  E
        E        
 E
        E        
H  E
        E        
S S S |------------------------|----------------------------| |------------------------|----------------------------| |-----11----------11-----|-------12------12-11h12p11--| |-0-0-----------0----0-0-|--0--0----------------------| |------------------------|----------------------------| |------------------------|----------------------------| | | Q  E
        E        
S S Q  E
        E        
 E
        E        
+Q  E
        E        
 E
        E        
Q  E
        E        
 E
        E        
|-7----x--x-x-5----x-3---|-(3)----3-3-3---3--3--------| |-7----x--x-x-5----x-3---|-(3)----3-3-3---3--3--------| |-7----x--x-x-6----x-4---|-(4)----4-4-4---4--4--------| |-9----x--x-x-7----x-5---|-(5)----5-5-5---5--5--------| |-9----x--x-x-7----x-5---|-(5)----5-5-5---5--5--------| |-7----x--x-x-5----x-3---|-(3)----3-3-3---3--3--------|  C
        C        
horus  G
        G        
 D
        D        
 A
        A        
Bm
       Bm       
  Q  E
        E        
 E
        E        
 E
        E        
 E
        E        
 E
        E        
 E
        E        
+H.  E
        E        
 E
        E        
|--------------------|----------------------------| |------5---7-5-------|----------------------------| |-7--7---------7-----|------------------------6---| |----------------7---|-(7)------------------7-----| |--------------------|----------------------------| |--------------------|----------------------------| | | Q  E
        E        
S S Q  E
        E        
S S  E
        E        
+S S S S E
        E        
+Q  E
        E        
S S |-3--3-x-x-----------|--5--(5)-x-x-x-7-(7)--7-x-x-| |-3--3-x-x-7---7-x-x-|--5--(5)-x-x-x-7-(7)--7-x-x-| |-4--4-x-x-7---7-x-x-|--6--(6)-x-x-x-7-(7)--7-x-x-| |-5--5-x-x-7---7-x-x-|--7--(7)-x-x-x-9-(9)--9-x-x-| |-5--5-x-x-5---5-x-x-|--7--(7)-x-x-x-9-(9)--9-x-x-| |-3--3-x-x-----------|--5--(5)-x-x-x-7-(7)--7-x-x-|  G
        G        
 D
        D        
 A
        A        
Q  E
        E        
 E
        E        
 E
        E        
 E
        E        
 E
        E        
 E
        E        
+H.  E
        E        
 E
        E        
|-----------------5-----|------------------| |------5---7--8-------5-|-(5)--------5-----| |-7--7------------------|------------------| |-----------------------|----------7-------| |-----------------------|------------------| |-----------------------|------------------| | | Q  E
        E        
S S E
        E        
. S S S E
        E        
+H.  E
        E        
S S |-3--3-x-x------------5-|-(5)------5-x-x---| |-3--3-x-x-7----x-x-x-5-|-(5)------5-x-x---| |-4--4-x-x-7----x-x-x-6-|-(6)------6-x-x---| |-5--5-x-x-7----x-x-x-7-|-(7)------7-x-x---| |-5--5-x-x-5----x-x-x-7-|-(7)------7-x-x---| |-3--3-x-x------------5-|-(5)------5-x-x---|  G
        G        
 D
        D        
 A
        A        
Bm
       Bm       
  Q  E
        E        
 E
        E        
 E
        E        
 E
        E        
 E
        E        
 E
        E        
+H.  E
        E        
 E
        E        
|---------------------|----------------------------| |-------5---7-5-------|----------------------------| |-7---7---------7-----|------------------------6---| |-----------------7---|-(7)------------------7-----| |---------------------|----------------------------| |---------------------|----------------------------| | | E
        E        
 E
        E        
 E
        E        
S S E
        E        
 E
        E        
 E
        E        
S S  E
        E        
+S S S S E
        E        
+Q  E
        E        
S S |-3-3-3-x-x-----------|--5--(5)-x-x-x-7-(7)--7-x-x-| |-3-3-3-x-x-7-7-7-x-x-|--5--(5)-x-x-x-7-(7)--7-x-x-| |-4-4-4-x-x-7-7-7-x-x-|--6--(6)-x-x-x-7-(7)--7-x-x-| |-5-5-5-x-x-7-7-7-x-x-|--7--(7)-x-x-x-9-(9)--9-x-x-| |-5-5-5-x-x-5-5-5-x-x-|--7--(7)-x-x-x-9-(9)--9-x-x-| |-3-3-3-x-x-----------|--5--(5)-x-x-x-7-(7)--7-x-x-|  G
        G        
 D
        D        
 A
        A        
Q  E
        E        
 E
        E        
 E
        E        
 E
        E        
 E
        E        
 E
        E        
+H.  E
        E        
 E
        E        
|---------------5------|-----------------------| |-------5---7-8------5-|--(5)----------/15-14--| |-7---7----------------|-----------------------| |----------------------|-----------------------| |----------------------|-----------------------| |----------------------|-----------------------| | | E
        E        
 E
        E        
 E
        E        
S S Q S S  E
        E        
+H  E
        E        
 E
        E        
 E
        E        
 E
        E        
|-3-3-3-x-x------------|-----------------------| |-3-3-3-x-x-7---x-x-14-|-(14)------------------| |-4-4-4-x-x-7---x-x-14-|-(14)------------------| |-5-5-5-x-x-7---x-x-14-|-(14)----14-14--12-11--| |-5-5-5-x-x-5---x-x-12-|-(12)------------------| |-3-3-3-x-x------------|-----------------------|  B
        B        
ridge Bm
       Bm       
   A
        A        
 G
        G        
 D
        D        
 G
        G        
trs I, II  E
        E        
 E
        E        
S S S S E
        E        
 E
        E        
S S S S S S S S S S S S S S S S S S E
        E        
||--7-7-x-7-x-7-5-5-x-5-x-5-|-x-x-3-x-x-3-x-x-3-x-x-3-x-x-----|| ||o-7-7-x-7-x-7-5-5-x-5-x-5-|-x-x-3-x-x-3-x-x-3-x-x-3-x-x-7--o|| ||--7-7-x-7-x-7-6-6-x-6-x-6-|-x-x-4-x-x-4-x-x-4-x-x-4-x-x-7---|| ||--9-9-x-9-x-9-7-7-x-7-x-7-|-x-x-5-x-x-5-x-x-5-x-x-5-x-x-7---|| ||o-9-9-x-9-x-9-7-7-x-7-x-7-|-x-x-5-x-x-5-x-x-5-x-x-5-x-x-5--o|| ||--7-7-x-7-x-7-5-5-x-5-x-5-|-x-x-3-x-x-3-x-x-3-x-x-3-x-x-----||  G
        G        
uitar Solo Bm
       Bm       
   A
        A        
 G
        G        
tr III ~~~~~ ~ |-3-| Q. +E
        E        
   E
        E        
S S S Q |-----------------------------------| |-----------------------------------| |-9b11========(9)r==9-7-9-7---------| |---------------------------9-------| |-----------------------------------| |-----------------------------------| | | G
        G        
tr II | E
        E        
 E
        E        
S S S S E
        E        
 E
        E        
S S S S |-7-----7-x-7--x--7-5-5-----x-5-x-5-| |-7-----7-x-7--x--7-5-5-----x-5-x-5-| |-7-----7-x-7--x--7-6-6-----x-6-x-6-| |-9-----9-x-9--x--9-7-7-----x-7-x-7-| |-9-----9-x-9--x--9-7-7-----x-7-x-7-| |-7-----7-x-7--x--7-5-5-----x-5-x-5-|  G
        G        
 D
        D        
 E
        E        
S S Q S S S S Q |-------------------------------------------------| |-------------------------------------------------| |-7---7-7-9b11-------9b11-9b11-9b11-9b11-9b11r====| |-------------------------------------------------| |-------------------------------------------------| |-------------------------------------------------| | | S S S S S S S S S S S S S S E
        E        
|-x-x-3-x-x----3-x-x-3----x----x----3----x----x---| |-x-x-3-x-x----3-x-x-3----x----x----3----x----x-7-| |-x-x-4-x-x----4-x-x-4----x----x----4----x----x-7-| |-x-x-5-x-x----5-x-x-5----x----x----5----x----x-7-| |-x-x-5-x-x----5-x-x-5----x----x----5----x----x-5-| |-x-x-3-x-x----3-x-x-3----x----x----3----x----x---| Bm
       Bm       
   A
        A        
~~~~~~~~~ Q Q  E
        E        
 E
        E        
 E
        E        
 E
        E        
|---------7--------7-----7-----7-------7------| |-10b12-----------10b12-10b12-10b12---10b12---| |---------------------------------------------| |---------------------------------------------| |---------------------------------------------| |---------------------------------------------| | |  E
        E        
 E
        E        
S S S S  E
        E        
 E
        E        
S S S S |--7----7-x-7-x-7--5-----5-----x----5--x----5-| |--7----7-x-7-x-7--5-----5-----x----5--x----5-| |--7----7-x-7-x-7--6-----6-----x----6--x----6-| |--9----9-x-9-x-9--7-----7-----x----7--x----7-| |--9----9-x-9-x-9--7-----7-----x----7--x----7-| |--7----7-x-7-x-7--5-----5-----x----5--x----5-|  G
        G        
 D
        D        
~~ ~~~~~ Q +S S S S H |-10-------(10)-7-10-7-10b12-------------| |----------------------------------------| |----------------------------------------| |----------------------------------------| |----------------------------------------| |----------------------------------------| | | S S S S S S S S S S S S S S E
        E        
|--x-x-3-x---x--3--x-x--3----x-x-3-x-x---| |--x-x-3-x---x--3--x-x--3----x-x-3-x-x-7-| |--x-x-4-x---x--4--x-x--4----x-x-4-x-x-7-| |--x-x-5-x---x--5--x-x--5----x-x-5-x-x-7-| |--x-x-5-x---x--5--x-x--5----x-x-5-x-x-5-| |--x-x-3-x---x--3--x-x--3----x-x-3-x-x---| Bm
       Bm       
   A
        A        
 G
        G        
 D
        D        
S S S S S S S S S S S S S S S S S S S S H  E
        E        
 E
        E        
|-x-7-7-7----------------------------|--------------------------------| |---------x-10-10-10-x-7-7-7---------|--------------------------------| |----------------------------x-9-9-9-|-x-7-7-7---------------------7--| |------------------------------------|---------9---------------9------| |------------------------------------|--------------------------------| |------------------------------------|---------7----------------------| | | E
        E        
 E
        E        
S S S S E
        E        
 E
        E        
S S S S S S S S S S S S S S S S S S E
        E        
|-7---7---x--7--x--7-5---5---x-5-x-5-|-x-x-3-x-x-3-x-x-3-x-x-3-x-x----| |-7---7---x--7--x--7-5---5---x-5-x-5-|-x-x-3-x-x-3-x-x-3-x-x-3-x-x-7--| |-7---7---x--7--x--7-6---6---x-6-x-6-|-x-x-4-x-x-4-x-x-4-x-x-4-x-x-7--| |-9---9---x--9--x--9-7---7---x-7-x-7-|-x-x-5-x-x-5-x-x-5-x-x-5-x-x-7--| |-9---9---x--9--x--9-7---7---x-7-x-7-|-x-x-5-x-x-5-x-x-5-x-x-5-x-x-5--| |-7---7---x--7--x--7-5---5---x-5-x-5-|-x-x-3-x-x-3-x-x-3-x-x-3-x-x----| Bm
       Bm       
   A
        A        
|--3---| S S S Q  E
        E        
S S Q. |-----------------------------------| |-----------------------------------| |-9b11r9p7-------7---7-7------------| |----------9-------------9----------| |-----------------------------------| |-----------------------------------| | | E
        E        
 E
        E        
S S S S E
        E        
 E
        E        
S S S S |-7--------7-x-7-x-7-5---5--x-5-x-5-| |-7--------7-x-7-x-7-5---5--x-5-x-5-| |-7--------7-x-7-x-7-6---6--x-6-x-6-| |-9--------9-x-9-x-9-7---7--x-7-x-7-| |-9--------9-x-9-x-9-7---7--x-7-x-7-| |-7--------7-x-7-x-7-5---5--x-5-x-5-|  G
        G        
 D
        D        
|--------6--------| |-----------6------------| |------6------| S S S S S S T +T S S S S S S S S S S S +Q |----------7---------------------------------------------------------------| |------7-----10p7----------------------------------------------------------| |-9b11--------------9-9b11r(9)p7-----9-7b7.5-------------------------------| |----------------------------------9-----------9-7-------------------------| |--------------------------------------------------9---8-7-5---------------| |--------------------------------------------------------------7-(7)-------| | | S S S S S S S S S S S S S S E
        E        
|-x------x----3---x---x----------3---x-------x---3---x---x---3----x--x-----| |-x------x----3---x---x----------3---x-------x---3---x---x---3----x--x-7---| |-x------x----4---x---x----------4---x-------x---4---x---x---4----x--x-7---| |-x------x----5---x---x----------5---x-------x---5---x---x---5----x--x-7---| |-x------x----5---x---x----------5---x-------x---5---x---x---5----x--x-5---| |-x------x----3---x---x----------3---x-------x---3---x---x---3----x--x-----| Bm
       Bm       
   A
        A        
|------6------| |--------6--------| |------6------| |--------6--------| S S S S S S S S S S S S S S S S S S S S S S S S |--------7-----------------7-----------------7-----------------7----------| |------7---10p7--------7-----10p7----------7---10p7--------7-----10p7-----| |-9b11----------9-9b11--------------9-9b11----------9-9b11--------------9-| |-------------------------------------------------------------------------| |-------------------------------------------------------------------------| |-------------------------------------------------------------------------| | | E
        E        
 E
        E        
S S S S  E
        E        
 E
        E        
S S S S |-7---------7-----x------7----x---7---5---------5-----x------5----x---5---| |-7---------7-----x------7----x---7---5---------5-----x------5----x---5---| |-7---------7-----x------7----x---7---6---------6-----x------6----x---6---| |-9---------9-----x------9----x---9---7---------7-----x------7----x---7---| |-9---------9-----x------9----x---9---7---------7-----x------7----x---7---| |-7---------7-----x------7----x---7---5---------5-----x------5----x---5---|  G
        G        
 D
        D        
|--------6--------| |--------6--------| |--------6--------| |-------6-------| S S S S S S S S S S S S S S S S S S S S S S S S |----------7-------------------7-------------------7-------------------7-----------| |------7-----10p7----------7-----10p7----------7-----10p7----------7-----10p7------| |-9b11--------------9-9b11--------------9-9b11--------------9-9b11------------9----| |----------------------------------------------------------------------------------| |----------------------------------------------------------------------------------| |----------------------------------------------------------------------------------| | | S S S S S S S S S S S S S S  E
        E        
|-x------x----3---x---x------3----x---x---3------x----x---3---x------x-------------| |-x------x----3---x---x------3----x---x---3------x----x---3---x------x----7--------| |-x------x----4---x---x------4----x---x---4------x----x---4---x------x----7--------| |-x------x----5---x---x------5----x---x---5------x----x---5---x------x----7--------| |-x------x----5---x---x------5----x---x---5------x----x---5---x------x----5--------| |-x------x----3---x---x------3----x---x---3------x----x---3---x------x-------------| Bm
       Bm       
   A
        A        
|-3-| |-3-| |--3--| |--3--| |-3-| |-3-| |--3--| |--3--| S S S S S S S S S S S S S S S S S S S S S S S S |-10p7---10p7---10p7-----10p7-----10p7---10p7---10p7-----10p7-----| |------7------7--------7--------7------7------7--------7--------7-| |-----------------------------------------------------------------| |-----------------------------------------------------------------| |-----------------------------------------------------------------| |-----------------------------------------------------------------| | |  E
        E        
 E
        E        
S S S S  E
        E        
 E
        E        
S S S S |--7------7------x---7----x---7----5------5------x---5----x---5---| |--7------7------x---7----x---7----5------5------x---5----x---5---| |--7------7------x---7----x---7----6------6------x---6----x---6---| |--9------9------x---9----x---9----7------7------x---7----x---7---| |--9------9------x---9----x---9----7------7------x---7----x---7---| |--7------7------x---7----x---7----5------5------x---5----x---5---|  G
        G        
 D
        D        
TP TP TP TP Q Q Q Q |-12-------14-------17-------19-------| |-------------------------------------| |-------------------------------------| |-------------------------------------| |-------------------------------------| |-------------------------------------| | | S S S S S S S S S S S S S S E
        E        
|--x-x-3-x--x-3-x-x--3-x-x-3--x-x-----| |--x-x-3-x--x-3-x-x--3-x-x-3--x-x-7---| |--x-x-4-x--x-4-x-x--4-x-x-4--x-x-7---| |--x-x-5-x--x-5-x-x--5-x-x-5--x-x-7---| |--x-x-5-x--x-5-x-x--5-x-x-5--x-x-5---| |--x-x-3-x--x-3-x-x--3-x-x-3--x-x-----| Bm
       Bm       
   A
        A        
~~~~~~~~~~~~~~~  E
        E        
 E
        E        
 E
        E        
 E
        E        
S S Q. |-19-------19-----------19-19-22b24==========| |----22b24------22b24------------------------| |--------------------------------------------| |--------------------------------------------| |--------------------------------------------| |--------------------------------------------| | |  E
        E        
 E
        E        
S S S S  E
        E        
 E
        E        
S S S S |--7--7-----x-7--x----7--5-----5-----x-5-x-5-| |--7--7-----x-7--x----7--5-----5-----x-5-x-5-| |--7--7-----x-7--x----7--6-----6-----x-6-x-6-| |--9--9-----x-9--x----9--7-----7-----x-7-x-7-| |--9--9-----x-9--x----9--7-----7-----x-7-x-7-| |--7--7-----x-7--x----7--5-----5-----x-5-x-5-|  G
        G        
 D
        D        
~~~~~~~ +H. S S S S |-(22)r-----------------------22p19-------| |-----------------------------------22p19-| |-----------------------------------------| |-----------------------------------------| |-----------------------------------------| |-----------------------------------------| | | S S S S S S S S S S S S S S  E
        E        
|---x---x-3-x-x-3-x-x-3-x-x-3--x--x-------| |---x---x-3-x-x-3-x-x-3-x-x-3--x--x--7----| |---x---x-4-x-x-4-x-x-4-x-x-4--x--x--7----| |---x---x-5-x-x-5-x-x-5-x-x-5--x--x--7----| |---x---x-5-x-x-5-x-x-5-x-x-5--x--x--5----| |---x---x-3-x-x-3-x-x-3-x-x-3--x--x-------| Bm
       Bm       
   A
        A        
S S S S S S S S S S S S a a a Q |-------------------------------------------19-------| |-----------------------------------------x----------| |-21p19-21p19---------------------------x------------| |-------------21p19-21p19-------------x--------------| |-------------------------21p19-21p19----------------| |----------------------------------------------------| | |  E
        E        
 E
        E        
S S S S  E
        E        
 E
        E        
S S S S |--7-----7-----x--7--x--7--5-----5-----------x-5-x-5-| |--7-----7-----x--7--x--7--5-----5-----------x-5-x-5-| |--7-----7-----x--7--x--7--6-----6-----------x-6-x-6-| |--9-----9-----x--9--x--9--7-----7-----------x-7-x-7-| |--9-----9-----x--9--x--9--7-----7-----------x-7-x-7-| |--7-----7-----x--7--x--7--5-----5-----------x-5-x-5-|  G
        G        
 D
        D        
 E
        E        
H +E
        E        
   E
        E        
 E
        E        
|-----------------------------------| |-----------------------------------| |-----------------------------------| |----------------------------9---7--| |-----------------------------------| |-19S==7---------------(7)----------| | | S S S S S S S S S S S S S S E
        E        
|--x-x-3-x-x-3-x-x-3-x--x--3-x-x----| |--x-x-3-x-x-3-x-x-3-x--x--3-x-x-7--| |--x-x-4-x-x-4-x-x-4-x--x--4-x-x-7--| |--x-x-5-x-x-5-x-x-5-x--x--5-x-x-7--| |--x-x-5-x-x-5-x-x-5-x--x--5-x-x-5--| |--x-x-3-x-x-3-x-x-3-x--x--3-x-x----| Bm
       Bm       
   A
        A        
 G
        G        
 D
        D        
 E
        E        
 E
        E        
Q  E
        E        
 E
        E        
Q  E
        E        
E
        E        
E
        E        
E
        E        
S S S E
        E        
|-------------------------------|-------------------------------| |-------------------------------|-------------------------------| |-------------------------------|-------------------------------| |-------------------------------|---------------------------x-7-| |-9-9------------7-7------------|-----5-----5-----5-----5---x-5-| |-7-7-/19-------5-5-/17-------|-----3-----3-----3-----3-------| | | E
        E        
 E
        E        
S S S S E
        E        
 E
        E        
S S S S S S S S S S S S S S S S S S E
        E        
|-7-7---x--7-x-7-5-5---x--5-x-5-|-x-x-3-x-x-3-x-x-3-x-x-3-x-x---| |-7-7---x--7-x-7-5-5---x--5-x-5-|-x-x-3-x-x-3-x-x-3-x-x-3-x-x-7-| |-7-7---x--7-x-7-6-6---x--6-x-6-|-x-x-4-x-x-4-x-x-4-x-x-4-x-x-7-| |-9-9---x--9-x-9-7-7---x--7-x-7-|-x-x-5-x-x-5-x-x-5-x-x-5-x-x-7-| |-9-9---x--9-x-9-7-7---x--7-x-7-|-x-x-5-x-x-5-x-x-5-x-x-5-x-x-5-| |-7-7---x--7-x-7-5-5---x--5-x-5-|-x-x-3-x-x-3-x-x-3-x-x-3-x-x---| Bm
       Bm       
   A
        A        
 G
        G        
 D
        D        
 E
        E        
 E
        E        
Q  E
        E        
 E
        E        
Q  E
        E        
E
        E        
E
        E        
E
        E        
S S S E
        E        
|-------------------------------|-------------------------------| |-------------------------------|-------------------------------| |-------------------------------|-------------------------------| |-------------------------------|---------------------------x-7-| |-9-9------------7-7------------|-----5-----5-----5-----5---x-5-| |-7-7-/19-------5-5-/17-------|-----3-----3-----3-----3-------| | | E
        E        
 E
        E        
S S S S E
        E        
 E
        E        
S S S S S S S S S S S S S S S S S S E
        E        
|-7-7---x--7-x-7-5-5---x--5-x-5-|-x-x-3-x-x-3-x-x-3-x-x-3-x-x---| |-7-7---x--7-x-7-5-5---x--5-x-5-|-x-x-3-x-x-3-x-x-3-x-x-3-x-x-7-| |-7-7---x--7-x-7-6-6---x--6-x-6-|-x-x-4-x-x-4-x-x-4-x-x-4-x-x-7-| |-9-9---x--9-x-9-7-7---x--7-x-7-|-x-x-5-x-x-5-x-x-5-x-x-5-x-x-7-| |-9-9---x--9-x-9-7-7---x--7-x-7-|-x-x-5-x-x-5-x-x-5-x-x-5-x-x-5-| |-7-7---x--7-x-7-5-5---x--5-x-5-|-x-x-3-x-x-3-x-x-3-x-x-3-x-x---| Bm
       Bm       
   A
        A        
 G
        G        
 D
        D        
 E
        E        
 E
        E        
Q  E
        E        
 E
        E        
Q  E
        E        
E
        E        
E
        E        
E
        E        
S S S E
        E        
|-------------------------------|-------------------------------| |-------------------------------|-------------------------------| |-------------------------------|-------------------------------| |-------------------------------|---------------------------x-7-| |-9-9------------7-7------------|-----5-----5-----5-----5---x-5-| |-7-7-/19-------5-5-/17-------|-----3-----3-----3-----3-------| | | E
        E        
 E
        E        
S S S S E
        E        
 E
        E        
S S S S S S S S S S S S S S S S S S E
        E        
|-7-7---x--7-x-7-5-5---x--5-x-5-|-x-x-3-x-x-3-x-x-3-x-x-3-x-x---| |-7-7---x--7-x-7-5-5---x--5-x-5-|-x-x-3-x-x-3-x-x-3-x-x-3-x-x-7-| |-7-7---x--7-x-7-6-6---x--6-x-6-|-x-x-4-x-x-4-x-x-4-x-x-4-x-x-7-| |-9-9---x--9-x-9-7-7---x--7-x-7-|-x-x-5-x-x-5-x-x-5-x-x-5-x-x-7-| |-9-9---x--9-x-9-7-7---x--7-x-7-|-x-x-5-x-x-5-x-x-5-x-x-5-x-x-5-| |-7-7---x--7-x-7-5-5---x--5-x-5-|-x-x-3-x-x-3-x-x-3-x-x-3-x-x---| Bm
       Bm       
   G
        G        
 D
        D        
 E
        E        
 E
        E        
Q  E
        E        
 E
        E        
Q H  E
        E        
 E
        E        
 E
        E        
 E
        E        
|-------------------------------|------------------------------------| |-------------------------------|------------------------------------| |-------------------------------|-12---------------12---12---12---12-| |-------------------------------|-12---------------12---12---12---12-| |-9-9------------7-7------------|-10---------------10---10---10---10-| |-7-7-/19-------5-5-/17-------|------------------------------------| | | E
        E        
 E
        E        
S S S S E
        E        
 E
        E        
S S S S S S S S S S S S S S S S S S  E
        E        
|-7-7---x--7-x-7-5-5---x--5-x-5-|--x-x-3-x-x-3-x-x--3-x--x-3--x-x----| |-7-7---x--7-x-7-5-5---x--5-x-5-|--x-x-3-x-x-3-x-x--3-x--x-3--x-x--7-| |-7-7---x--7-x-7-6-6---x--6-x-6-|--x-x-4-x-x-4-x-x--4-x--x-4--x-x--7-| |-9-9---x--9-x-9-7-7---x--7-x-7-|--x-x-5-x-x-5-x-x--5-x--x-5--x-x--7-| |-9-9---x--9-x-9-7-7---x--7-x-7-|--x-x-5-x-x-5-x-x--5-x--x-5--x-x--5-| |-7-7---x--7-x-7-5-5---x--5-x-5-|--x-x-3-x-x-3-x-x--3-x--x-3--x-x----|  C
        C        
horus  G
        G        
 D
        D        
 A
        A        
Bm
       Bm       
   G
        G        
tr I Q  E
        E        
 E
        E        
 E
        E        
 E
        E        
 E
        E        
 E
        E        
+H.  E
        E        
 E
        E        
|--------------------|----------------------------| |------5---7-5-------|----------------------------| |-7--7---------7-----|------------------------6---| |----------------7---|-(7)------------------7-----| |--------------------|----------------------------| |--------------------|----------------------------| | | Q  E
        E        
S S Q  E
        E        
S S  E
        E        
+S S S S E
        E        
+Q  E
        E        
S S |-3--3-x-x-----------|--5--(5)-x-x-x-7-(7)--7-x-x-| |-3--3-x-x-7---7-x-x-|--5--(5)-x-x-x-7-(7)--7-x-x-| |-4--4-x-x-7---7-x-x-|--6--(6)-x-x-x-7-(7)--7-x-x-| |-5--5-x-x-7---7-x-x-|--7--(7)-x-x-x-9-(9)--9-x-x-| |-5--5-x-x-5---5-x-x-|--7--(7)-x-x-x-9-(9)--9-x-x-| |-3--3-x-x-----------|--5--(5)-x-x-x-7-(7)--7-x-x-|  G
        G        
 D
        D        
 A
        A        
Q  E
        E        
 E
        E        
 E
        E        
 E
        E        
 E
        E        
 E
        E        
+H.  E
        E        
 E
        E        
|-----------------5-----|------------------| |------5---7--8-------5-|-(5)--------5-----| |-7--7------------------|------------------| |-----------------------|----------7-------| |-----------------------|------------------| |-----------------------|------------------| | | Q  E
        E        
S S E
        E        
. S S S E
        E        
+H.  E
        E        
S S |-3--3-x-x------------5-|-(5)------5-x-x---| |-3--3-x-x-7----x-x-x-5-|-(5)------5-x-x---| |-4--4-x-x-7----x-x-x-6-|-(6)------6-x-x---| |-5--5-x-x-7----x-x-x-7-|-(7)------7-x-x---| |-5--5-x-x-5----x-x-x-7-|-(7)------7-x-x---| |-3--3-x-x------------5-|-(5)------5-x-x---|  G
        G        
 D
        D        
 A
        A        
Bm
       Bm       
  Q  E
        E        
 E
        E        
 E
        E        
 E
        E        
 E
        E        
 E
        E        
+H.  E
        E        
 E
        E        
|---------------------|----------------------------| |-------5---7-5-------|----------------------------| |-7---7---------7-----|------------------------6---| |-----------------7---|-(7)------------------7-----| |---------------------|----------------------------| |---------------------|----------------------------| | | E
        E        
 E
        E        
 E
        E        
S S E
        E        
 E
        E        
 E
        E        
S S  E
        E        
+S S S S E
        E        
+Q  E
        E        
S S |-3-3-3-x-x-----------|--5--(5)-x-x-x-7-(7)--7-x-x-| |-3-3-3-x-x-7-7-7-x-x-|--5--(5)-x-x-x-7-(7)--7-x-x-| |-4-4-4-x-x-7-7-7-x-x-|--6--(6)-x-x-x-7-(7)--7-x-x-| |-5-5-5-x-x-7-7-7-x-x-|--7--(7)-x-x-x-9-(9)--9-x-x-| |-5-5-5-x-x-5-5-5-x-x-|--7--(7)-x-x-x-9-(9)--9-x-x-| |-3-3-3-x-x-----------|--5--(5)-x-x-x-7-(7)--7-x-x-|  G
        G        
 D
        D        
 A
        A        
Q  E
        E        
 E
        E        
 E
        E        
 E
        E        
 E
        E        
 E
        E        
+H.  E
        E        
 E
        E        
|---------------5------|-----------------------| |-------5---7-8------5-|--(5)----------/15-14--| |-7---7----------------|-----------------------| |----------------------|-----------------------| |----------------------|-----------------------| |----------------------|-----------------------| | | E
        E        
 E
        E        
 E
        E        
S S Q S S  E
        E        
+H  E
        E        
 E
        E        
 E
        E        
 E
        E        
|-3-3-3-x-x------------|-----------------------| |-3-3-3-x-x-7---x-x-14-|-(14)------------------| |-4-4-4-x-x-7---x-x-14-|-(14)------------------| |-5-5-5-x-x-7---x-x-14-|-(14)----14-14--12-11--| |-5-5-5-x-x-5---x-x-12-|-(12)------------------| |-3-3-3-x-x------------|-----------------------| Outro Bm
       Bm       
   A
        A        
 G
        G        
Q  E
        E        
E
        E        
E
        E        
 E
        E        
 E
        E        
 E
        E        
 E
        E        
 E
        E        
E
        E        
E
        E        
 E
        E        
 E
        E        
||-----------------------|------------------------| ||o----------------------|------------------------| ||-----11-----------11---|-------12---------12-14-| ||--0-----0-0---0-0----0-|--0--0----0-0-0-0-------| ||o----------------------|------------------------| ||-----------------------|------------------------| | | Q  E
        E        
S S Q  E
        E        
 E
        E        
+W ||--7---x-x-x-5------x-3-|-(3)--------------------| ||o-7---x-x-x-5------x-3-|-(3)--------------------| ||--7---x-x-x-6------x-4-|-(4)--------------------| ||--9---x-x-x-7------x-5-|-(5)--------------------| ||o-9---x-x-x-7------x-5-|-(5)--------------------| ||--7---x-x-x-5------x-3-|-(3)--------------------| Bm
       Bm       
   A
        A        
 G
        G        
 G
        G        
 A
        A        
|--3--|  E
        E        
 E
        E        
 E
        E        
E
        E        
E
        E        
 E
        E        
S S  E
        E        
 E
        E        
 E
        E        
E
        E        
E
        E        
 E
        E        
S S S |-------------------------|--------------------------------|| |-------------------------|-------------------------------o|| |-----11-----------11-----|-------12---------12-11h12p11---|| |-0-0----0-0---0-0----0-0-|--0--0----0-0-0-0---------------|| |-------------------------|-------------------------------o|| |-------------------------|--------------------------------|| | | Q  E
        E        
S S Q  E
        E        
 E
        E        
+H.  E
        E        
 E
        E        
|-7----x-x-x-5------x-3---|-(3)---------------3--5---------|| |-7----x-x-x-5------x-3---|-(3)---------------3--5--------o|| |-7----x-x-x-6------x-4---|-(4)---------------4--6---------|| |-9----x-x-x-7------x-5---|-(5)---------------5--7---------|| |-9----x-x-x-7------x-5---|-(5)---------------5--7--------o|| |-7----x-x-x-5------x-3---|-(3)---------------3--5---------|| Bm
       Bm       
   A
        A        
 G
        G        
Q  E
        E        
E
        E        
E
        E        
 E
        E        
 E
        E        
 E
        E        
 E
        E        
 E
        E        
E
        E        
E
        E        
 E
        E        
 E
        E        
|-----------------------|------------------------| |-----------------------|------------------------| |----11------------11---|-------12---------12-14-| |-0-----0-0----0-0----0-|--0--0----0-0-0-0-------| |-----------------------|------------------------| |-----------------------|------------------------| | | H Q.  E
        E        
+W |-7---------5---------3-|-(3)--------------------| |-7---------5---------3-|-(3)--------------------| |-7---------6---------4-|-(4)--------------------| |-9---------7---------5-|-(5)--------------------| |-9---------7---------5-|-(5)--------------------| |-7---------5---------3-|-(3)--------------------| Bm
       Bm       
   A
        A        
 G
        G        
|--3--|  E
        E        
 E
        E        
 E
        E        
E
        E        
E
        E        
 E
        E        
S S  E
        E        
 E
        E        
 E
        E        
E
        E        
E
        E        
 E
        E        
S S S |--------------------------|--------------------------------| |--------------------------|--------------------------------| |-----11------------11-----|-------12---------12-11h12p11---| |-0-0----0-0----0-0----0-0-|--0--0----0-0-0-0---------------| |--------------------------|--------------------------------| |--------------------------|--------------------------------| | | H Q.  E
        E        
+W |-7----------5---------3---|-(3)----------------------------| |-7----------5---------3---|-(3)----------------------------| |-7----------6---------4---|-(4)----------------------------| |-9----------7---------5---|-(5)----------------------------| |-9----------7---------5---|-(5)----------------------------| |-7----------5---------3---|-(3)----------------------------| Bm
       Bm       
   A
        A        
 G
        G        
Q  E
        E        
E
        E        
E
        E        
 E
        E        
 E
        E        
 E
        E        
 E
        E        
 E
        E        
E
        E        
E
        E        
 E
        E        
 E
        E        
|-----------------------|------------------------| |-----------------------|------------------------| |----11------------11---|-------12---------12-14-| |-0-----0-0----0-0----0-|--0--0----0-0-0-0-------| |-----------------------|------------------------| |-----------------------|------------------------| | | H Q.  E
        E        
+W |-7---------5---------3-|-(3)--------------------| |-7---------5---------3-|-(3)--------------------| |-7---------6---------4-|-(4)--------------------| |-9---------7---------5-|-(5)--------------------| |-9---------7---------5-|-(5)--------------------| |-7---------5---------3-|-(3)--------------------| H.=H N.C.  D
        D        
|--3--|  E
        E        
 E
        E        
 E
        E        
E
        E        
E
        E        
 E
        E        
S S  E
        E        
 E
        E        
 E
        E        
E
        E        
E
        E        
 E
        E        
S S S W |-----------------------|----------------------------|-^14----*| |-----------------------|----------------------------|-^15----*| |-----11---------11-----|-----12---------12-11h12p11-|-^14----*| |-0-0----0-0-0-0----0-0-|-0-0----0-0-0-0-------------|-^-0----*| |-----------------------|----------------------------|--------*| |-----------------------|----------------------------|--------*| | | W W W |-----------------------|----------------------------|-^-2----*| |-----------------------|----------------------------|-^-3----*| |-----------------------|----------------------------|-^-2----*| |-----------------------|----------------------------|-^-0----*| |-----------------------|----------------------------|--------*| |-----------------------|----------------------------|--------*| Duration Legend --------------- W - whole; H - half; Q - quarter; E
        E        
- 8th; S - 16th; T - 32nd; X - 64th; a - acciaccatura + - note tied to previous; . - note dotted; .. - note double dotted Uncapitalized letters represent notes that are staccato (1/2 duration) Irregular groupings are notated above the duration line Duration letters will always appear directly above the note/fret number it represents the duration for.  D
        D        
uration letters with no fret number below them represent rests. Multi- bar rests are notated in the form Wxn, where n is the number of bars to rest for. Low melody durations appear below the staff Tablature Legend ---------------- h - hammer-on p - pull-off b - bend pb - pre-bend r - bend release (if no number after the r, then release immediately) / - slide into or out of (from/to "nowhere") s - legato slide S - shift slide - natural harmonic [n] - artificial harmonic n(n) - tapped harmonic ~ - vibrato tr - trill T - tap TP - trem. picking PM - palm muting / - tremolo bar dip; n = amount to dip - tremolo bar down n/ - tremolo bar up /n - tremolo bar inverted dip = - hold bend; also acts as connecting device for hammers/pulls - volume swell (louder/softer) x - on rhythm slash represents muted slash o - on rhythm slash represents single note slash Misc Legend ----------- | - bar || - double bar ||o - repeat start o|| - repeat end *| - double bar (ending) : - bar (freetime) $ - Segno & - C
        C        
oda Tempo markers - = B
        B        
PM(8/16=s8/s16), where s8 = swing 8ths, s16 = swing 16ths *************************************************************************************** * G
        G        
enerated using Power Tab E
        E        
ditor by B
        B        
rad Larsen - http://powertab.guitarnetwork.org * ***************************************************************************************

Este fichero es trabajo propio de su transcriptor y representa su interpretación personal de la canción. El material contenido en esta página es para exclusivo uso privado, por lo que se prohibe su reproducción o retransmisión, así como su uso para fines comerciales.