Quinn Peck - Crystal Stairs (TAB)


#----------------------------------PLEASE
        E        
 NOTE---------------------------------# #This file is the author's own work and represents their interpretation of the # #song. You may only use this file for private study, scholarship, or research. # #------------------------------------------------------------------------------##  C
        C        
RYSTAL STAIRS  A
        A        
s recorded by Quinn Peck Music by Quinn Peck Arranged by guitarist5240 Transcribed by guitarist5240 Gtr I (E
        E        
 A D
        D        
 G
        G        
 B
        B        
 E
        E        
) - 'Untitled' Gtr II (E
        E        
 A D
        D        
 G
        G        
 B
        B        
 E
        E        
) - 'Untitled' Gtr III (E
        E        
 A D
        D        
 G
        G        
 B
        B        
 E
        E        
) - 'Untitled' Gtr IV (E
        E        
 A D
        D        
 G
        G        
 B
        B        
 E
        E        
) - 'Untitled' Gtr V (E
        E        
 A D
        D        
 G
        G        
 B
        B        
 E
        E        
) - 'Untitled' Gtr VI (E
        E        
 A D
        D        
 G
        G        
 B
        B        
 E
        E        
) - 'Untitled' Intro Q=100  A
        A        
5/F#
       F#       
   D/F#
      D/F#      
4/4  G
        G        
tr I Q  E
        E        
S S S S E
        E        
 E
        E        
S S Q  E
        E        
E
        E        
E
        E        
 E
        E        
 E
        E        
|----------------------|--------------------| |----------------------|--------------------| |----9-9-9-x-9---9-x-x-|----7-7-7-7---7--9--| |----7-7-7-x-7---7-x-x-|----7-7-7-7---7-(7)-| |-9------------9-------|-9----------9-------| |----------------------|--------------------|  A/C#
      A/C#      
 D
        D        
5/B
        B        
  Q  E
        E        
S S S S E
        E        
 E
        E        
 E
        E        
Q  E
        E        
S S S S E
        E        
 E
        E        
 E
        E        
|--------------------|------------------------| |--------------------|------------------------| |--------------------|------------6---6--7----| |----7-7-7-x-7-----7-|----7-7-7-x-7---7-(7)---| |----7-7-7-x-7---7---|----5-5-5-x-5---5-(5)---| |-9------------9-----|-7------------7---------|  A
        A        
5/F#
       F#       
   D/F#
      D/F#      
Q  E
        E        
S S S S E
        E        
 E
        E        
S S Q  E
        E        
S  E
        E        
E
        E        
 E
        E        
 E
        E        
|----------------------------|------------------------| |------10-10-10---7---10-x-x-|----10-10-10-10---7--7--| |-(7)---9--9--9-x-9----9-x-x-|-----7--7--7--7---7--9--| |-------7--7--7-x-7----7-x-x-|-----7--7--7--7---7-(7)-| |--9----------------9--------|-9--------------9-------| |----------------------------|------------------------|  A/C#
      A/C#      
 D
        D        
5/B
        B        
  Q  E
        E        
S S S S E
        E        
S S E
        E        
Q  E
        E        
S S S S E
        E        
 E
        E        
 E
        E        
|----------------------|------------------------| |----------------------|------------------------| |----9-9-9---7---------|----7-7-7---6---6--7----| |----7-7-7-x-7-------7-|----7-7-7-x-7---7-(7)---| |----7-7-7-x-7---7h9---|----5-5-5-x-5---5-(5)---| |-9------------9-------|-7------------7---------|  A
        A        
5/F#
       F#       
   D/F#
      D/F#      
Q  E
        E        
S S S S E
        E        
 E
        E        
S S Q  E
        E        
S  E
        E        
E
        E        
 E
        E        
 E
        E        
|------------------------------|----------------------------| |------10-10-10-----7---10-x-x-|----10-10-10-----10---7--7--| |-(7)---9--9--9--x--9----9-x-x-|-----7--7--7------7---7--9--| |-------7--7--7--x--7----7-x-x-|-----7--7--7------7---7-(7)-| |--9------------------9--------|-9------------------9-------| |------------------------------|----------------------------| | | G
        G        
tr II | < > < > | H +H H +H |------------------------------|----------------------------| |------------------------------|----------------------------| |------------------------------|----------------------------| |------------------------------|----------------------------| |--9------------(9)------------|-5-----------(5)------------| |------------------------------|----------------------------|  A/C#
      A/C#      
 D
        D        
5/B
        B        
  Q  E
        E        
S S S S E
        E        
 E
        E        
 E
        E        
Q  E
        E        
S S S S E
        E        
 E
        E        
 E
        E        
|----------------------|--------------------------| |----------------------|--------------------------| |----9-9-9-----7-------|----7-7-7-----6---6--7----| |----7-7-7--x--7-----7-|----7-7-7--x--7---7-(7)---| |----7-7-7--x--7---7---|----5-5-5--x--5---5-(5)---| |-9--------------9-----|-7--------------7---------| | | < > < | H +H H +H |----------------------|--------------------------| |----------------------|--------------------------| |----------------------|--------------------------| |----------------------|--------------------------| |-4--------(4)---------|-2--------(2)-------------| |----------------------|--------------------------|  A
        A        
5/F#
       F#       
   D/F#
      D/F#      
Q  E
        E        
S S S S E
        E        
 E
        E        
S S Q  E
        E        
S  E
        E        
E
        E        
 E
        E        
 E
        E        
|-----------------------------|---------------------------| |-----10-10-10---7---10---x-x-|-----10-10-10-10---7----7--| |-7----9--9--9-x-9----9---x-x-|------7--7--7--7---7----9--| |------7--7--7-x-7----7---x-x-|------7--7--7--7---7---(7)-| |-9----------------9----------|-9---------------9---------| |-----------------------------|---------------------------| | | H. S S E
        E        
H. S S  E
        E        
|-----------------------------|---------------------------| |-----------------------------|---------------------------| |-----------------------------|---------------------------| |---------------------4-5-4---|-------------------4-5--4--| |-5---------------------------|-5-------------------------| |-----------------------------|---------------------------|  A/C#
      A/C#      
 D
        D        
5/B
        B        
  Q  E
        E        
S S S S E
        E        
 E
        E        
 E
        E        
Q  E
        E        
S S S S E
        E        
 E
        E        
 E
        E        
|--------------------|-------------------------------| |--------------------|-------------------------------| |----9-9-9---7-------|-------7---7-7---6-----6--7----| |----7-7-7-x-7-----7-|-------7---7-7-x-7-----7-(7)---| |----7-7-7-x-7---7---|-------5---5-5-x-5-----5-(5)---| |-9------------9-----|---7---------------7-----------| | | Q  E
        E        
H  E
        E        
E
        E        
 E
        E        
 E
        E        
a Q S S E
        E        
 E
        E        
|--------------------|-------------------------------| |--------------------|-------------------------------| |--------------------|-------------------------------| |----x-7-------------|-4h5-4-2-2h4-------4h5p4--2----| |----x---------------|-------------------------------| |-5----------------5-|-------------------------------|  C
        C        
horus $  A
        A        
5/F#
       F#       
   D/F#
      D/F#      
Q  E
        E        
S S S S E
        E        
 E
        E        
S S Q  E
        E        
S  E
        E        
E
        E        
 E
        E        
 E
        E        
|-----------------------------|-------------------------------| |-----10-10-10---7---10---x-x-|-----10-10-10---10---7----7----| |-7----9--9--9-x-9----9---x-x-|------7--7--7----7---7----9----| |------7--7--7-x-7----7---x-x-|------7--7--7----7---7---(7)---| |-9----------------9----------|-9-----------------9-----------| |-----------------------------|-------------------------------| | | H. S S E
        E        
H. S S  E
        E        
|-----------------------------|-------------------------------| |-----------------------------|-------------------------------| |-----------------------------|-------------------------------| |---------------------4-5-4---|---------------------4-5--4----| |-5---------------------------|-5-----------------------------| |-----------------------------|-------------------------------| | | G
        G        
tr III | Q  E
        E        
S S S S E
        E        
 E
        E        
S S Q  E
        E        
S S S S E
        E        
 E
        E        
S S |-----------------------------|-------------------------------| |-----------------------------|-------------------------------| |------7-----7---7----7-----7-|------7-----7----7---7-------7-| |-0-------0----0---0------0---|-0-------0----0----0------0----| |-----------------------------|-------------------------------| |-----------------------------|-------------------------------|  A/C#
      A/C#      
 D
        D        
5/B
        B        
  Q  E
        E        
S S S S E
        E        
 E
        E        
 E
        E        
Q  E
        E        
S S S S  E
        E        
 E
        E        
 E
        E        
|--------------------|------------------------------------| |--------------------|------------------------------------| |----9-9-9---7-------|----------7----7-7---6--------6--7--| |----7-7-7-x-7-----7-|----------7----7-7-x-7--------7-(7)-| |----7-7-7-x-7---7---|----------5----5-5-x-5--------5-(5)-| |-9------------9-----|-----7------------------7-----------| | | Q  E
        E        
H  E
        E        
a  E
        E        
 E
        E        
 E
        E        
a Q S S  E
        E        
 E
        E        
|--------------------|------------------------------------| |--------------------|------------------------------------| |--------------------|------------------------------------| |----x-7-------------|--4h=5--4-2-2h=4--------4h=5p=4--2--| |----x---------------|------------------------------------| |-5----------------5-|------------------------------------| | | Q  E
        E        
S S S S E
        E        
 E
        E        
 E
        E        
a  E
        E        
 E
        E        
 E
        E        
a Q S S  E
        E        
 E
        E        
|--------------------|------------------------------------| |--------------------|------------------------------------| |----9---9---9---9---|-11s12-11-9-9s11-------11h12p11--9--| |--------------------|------------------------------------| |-7----7---7---7---7-|--9s10--9-7-7s=9--------9h10p=9--7--| |--------------------|------------------------------------|  A
        A        
5/F#
       F#       
   D/F#
      D/F#      
Q  E
        E        
S S S S E
        E        
 E
        E        
S S Q  E
        E        
S  E
        E        
E
        E        
 E
        E        
 E
        E        
|-------------------------------|------------------------------| |-----10-10-10----7---10---x--x-|-----10-10-10---10----7----7--| |-7----9--9--9-x--9----9---x--x-|------7--7--7----7----7----9--| |------7--7--7-x--7----7---x--x-|------7--7--7----7----7---(7)-| |-9-----------------9-----------|-9-----------------9----------| |-------------------------------|------------------------------| | | H. S S E
        E        
H. S S  E
        E        
|-------------------------------|------------------------------| |-------------------------------|------------------------------| |-------------------------------|------------------------------| |----------------------4-5-4----|----------------------4-5--4--| |-5-----------------------------|-5----------------------------| |-------------------------------|------------------------------| | | Q  E
        E        
S S S S E
        E        
 E
        E        
S S Q  E
        E        
S S S S E
        E        
 E
        E        
 E
        E        
|-------------------------------|------------------------------| |-----10----10---10---10-----10-|-----10----10---10---10-------| |-7-------7----7----7------7----|-7-------7----7----7-------7--| |-------------------------------|------------------------------| |-------------------------------|------------------------------| |-------------------------------|------------------------------|  A/C#
      A/C#      
 D
        D        
5/B
        B        
  Q  E
        E        
S S S S E
        E        
 E
        E        
 E
        E        
Q  E
        E        
S S S S  E
        E        
 E
        E        
 E
        E        
|------------------------|---------------------------------------| |------------------------|---------------------------------------| |-----9-9--9----7--------|-----------7-----7-7---6--------6--7---| |-----7-7--7-x--7------7-|-----------7-----7-7-x-7--------7-(7)--| |-----7-7--7-x--7----7---|-----------5-----5-5-x-5--------5-(5)--| |-9---------------9------|-----7--------------------7------------| | | Q  E
        E        
H  E
        E        
a  E
        E        
 E
        E        
 E
        E        
a Q S S  E
        E        
 E
        E        
|------------------------|---------------------------------------| |------------------------|---------------------------------------| |------------------------|---------------------------------------| |-----x-7----------------|--4h=5--4--2--2h=4--------4h=5p=4--2---| |-----x------------------|---------------------------------------| |-5--------------------5-|---------------------------------------| | | Q  E
        E        
S S S S E
        E        
 E
        E        
 E
        E        
a  E
        E        
 E
        E        
 E
        E        
a Q S S  E
        E        
 E
        E        
|------------------------|-14s15-14-12-12s14-------14h15p14-12---| |----10---10---10---10---|---------------------------------------| |-6-----6----6----6----6-|-11s12-11--9--9s11-------11h12p11--9---| |------------------------|---------------------------------------| |------------------------|---------------------------------------| |------------------------|---------------------------------------|  A
        A        
5/F#
       F#       
   D/F#
      D/F#      
Q  E
        E        
S S S S E
        E        
 E
        E        
S S Q  E
        E        
S  E
        E        
E
        E        
 E
        E        
 E
        E        
|-----------------------------|-----------------------------| |-----10-10-10----7---10-x--x-|------10-10-10---10----7--7--| |--7---9--9--9-x--9----9-x--x-|-------7--7--7----7----7--9--| |------7--7--7-x--7----7-x--x-|-------7--7--7----7----7-(7)-| |--9----------------9---------|--9-----------------9--------| |-----------------------------|-----------------------------| | | G
        G        
trs II, III | > | W +W |-10--------------------------|-----------------------------| |-----------------------------|-----------------------------| |--7--------------------------|-----------------------------| |--0--------------------------|-(0)-------------------------| |-----------------------------|-----------------------------| |-----------------------------|-----------------------------| | | G
        G        
tr IV | Q  E
        E        
S S S S E
        E        
 E
        E        
S S Q  E
        E        
S S S S E
        E        
 E
        E        
 E
        E        
|-----------------------------|-----------------------------| |-----10----10---10---10---10-|------10----10---10---10-----| |--7------7----7----7----7----|--7-------7----7----7-----7--| |-----------------------------|-----------------------------| |-----------------------------|-----------------------------| |-----------------------------|-----------------------------|  A/C#
      A/C#      
 D
        D        
5/B
        B        
  Q  E
        E        
S S S S E
        E        
 E
        E        
 E
        E        
Q  E
        E        
S S S S E
        E        
 E
        E        
 E
        E        
|------------------------|-------------------------| |------------------------|-------------------------| |-----9-9--9----7--------|-----7-7-7-----6---6-7---| |-----7-7--7-x--7------7-|-----7-7-7--x--7---7-7---| |-----7-7--7-x--7----7---|-----5-5-5--x--5---5-5---| |-9---------------9------|-7---------------7-------| | | W W |------------------------|-------------------------| |------------------------|-------------------------| |------------------------|-------------------------| |------------------------|-------------------------| |------------------------|-------------------------| |------------------------|-------------------------| | | Q  E
        E        
S S S S E
        E        
 E
        E        
 E
        E        
 E
        E        
 E
        E        
 E
        E        
 E
        E        
+H |------------------------|-2-----2---(2)-----------| |----10---10---10---10---|---3---------------------| |-6-----6----6----6----6-|-----2-------------------| |------------------------|-------------------------| |------------------------|-------------------------| |------------------------|-------------------------| Pre-Verse  A
        A        
5/F#
       F#       
  E7
       E7       
  Q  E
        E        
. S S S E
        E        
 E
        E        
 E
        E        
Q  E
        E        
. S S S E
        E        
 E
        E        
 E
        E        
|-----------------------|-------------------| |----10--10-x-10---10---|----9--9-x-9---9---| |-----9---9-x--9----9---|----7--7-x-7---7---| |-----7---7-x--7----7---|----9--9-x-9---9---| |-9---9----------9----9-|-7--7--------7---7-| |-----------------------|-------------------| | | G
        G        
tr V | < < | ~~~~~~~~~~~~~~~~~~~~~~~~~~~~~~~~~~~~~~~~~~~ | W W |-----------------------|-------------------| |-----------------------|-------------------| |-----------------------|-------------------| |-----------------------|-------------------| |-9---------------------|-7-----------------| |-----------------------|-------------------|  F#m
       F#m       
/D
        D        
  C#7
       C#7       
  Q  E
        E        
. S S S E
        E        
 E
        E        
 E
        E        
Q  E
        E        
. S S S E
        E        
 E
        E        
 E
        E        
|-------------------|---------------------| |----7--7-x-7---7---|----6--6-x-6---6-----| |----6--6-x-6---6---|----4--4-x-4---4-----| |----7--7-x-7---7---|----6--6-x-6---6-----| |-5--5--------5---5-|-4--4--------4---4---| |-------------------|---------------------| | | < < |~~~~~~~~~~~~~~~~~~~~~~~ | W W |-------------------|---------------------| |-------------------|---------------------| |-------------------|---------------------| |-------------------|---------------------| |-5-----------------|-4-------------------| |-------------------|---------------------| Verse  A
        A        
5/F#
       F#       
  E7
       E7       
  Q  E
        E        
. S S S E
        E        
 E
        E        
 E
        E        
Q  E
        E        
. S S S E
        E        
 E
        E        
 E
        E        
|-------------------------|-----------------------| |----10--10--x--10---10---|------9--9--x--9---9---| |-----9---9--x---9----9---|------7--7--x--7---7---| |-----7---7--x---7----7---|------9--9--x--9---9---| |-9---9------------9----9-|---7--7----------7---7-| |-------------------------|-----------------------| | | G
        G        
tr V | ~~~~~~~~~~~~~~ ~~~~~~~~~~~~ | H +E
        E        
   E
        E        
 E
        E        
 E
        E        
a H +E
        E        
   E
        E        
 E
        E        
 E
        E        
|-------------------------|-----------------------| |-------------------------|-----------------------| |-------------------------|-----------------------| |------------------6--7-9-|-----------------9-7-6-| |-9---------(9)-----------|-5s7-------(7)---------| |-------------------------|-----------------------|  F#m
       F#m       
/D
        D        
  C#7
       C#7       
  Q  E
        E        
. S S S E
        E        
 E
        E        
 E
        E        
Q  E
        E        
. S S S E
        E        
 E
        E        
 E
        E        
|---------------------|--------------------| |----7--7--x--7---7---|----6--6-x-6---6----| |----6--6--x--6---6---|----4--4-x-4---4----| |----7--7--x--7---7---|----6--6-x-6---6----| |-5--5----------5---5-|-4--4--------4---4--| |---------------------|--------------------| | | ~~~~~~~~~~~~ ~ | H +E
        E        
   E
        E        
 E
        E        
 E
        E        
H  E
        E        
 E
        E        
 E
        E        
 E
        E        
|---------------------|--------------------| |---------------------|--------------------| |---------------------|--------------------| |---------------7-7-6-|-------------7-6----| |-5-------(5)---------|---------7-------7--| |---------------------|-9------------------|  A
        A        
5/F#
       F#       
  E7
       E7       
  Q  E
        E        
. S S S E
        E        
 E
        E        
 E
        E        
Q  E
        E        
. S S S E
        E        
 E
        E        
 E
        E        
|---------------------------------|------------------------------| |-----10--10--x--10------10-------|------9--9--x--9------9-------| |------9---9--x---9-------9-------|------7--7--x--7------7-------| |------7---7--x---7-------7-------|------9--9--x--9------9-------| |--9---9------------9---------9---|---7--7----------7--------7---| |---------------------------------|------------------------------| | | ~~~~~~~~~~~~~~ ~~~~~~~~~~~~ | H +E
        E        
  S S S S S S H +E
        E        
  S S S S S S |---------------------------------|------------------------------| |---------------------------------|------------------------------| |---------------------------------|------------------------------| |-------------------6--7--9-6-7-6-|---9-------(9)---9--7-6-7-6---| |-/9---------(9)------------------|----------------------------7-| |---------------------------------|------------------------------| | | G
        G        
tr II | ~~~~~~~~~~~~~~ ~~~~~~~~~~~~ | H +E
        E        
  Q. a H +E
        E        
  Q. |---------------------------------|------------------------------| |---------------------------------|------------------------------| |---------------------------------|------------------------------| |-------------------7-------------|-----------------9------------| |--9---------(9)------------------|-5s7-------(7)----------------| |---------------------------------|------------------------------|  F#m
       F#m       
/D
        D        
  C#7
       C#7       
  Q  E
        E        
. S S S E
        E        
 E
        E        
 E
        E        
Q  E
        E        
. S S S E
        E        
 E
        E        
 E
        E        
|----------------------|---------------------------| |----7--7--x--7----7---|----6--6--x--6------6------| |----6--6--x--6----6---|----4--4--x--4------4------| |----7--7--x--7----7---|----6--6--x--6------6------| |-5--5----------5----5-|-4--4----------4------4----| |----------------------|---------------------------| | | ~~~~~~~~~~~~ ~~~~~~~~~~~~ | H +E
        E        
   E
        E        
 E
        E        
 E
        E        
H +E
        E        
   E
        E        
E
        E        
 E
        E        
|----------------------|---------------------------| |----------------------|-6-------(6)---6--6h7-6----| |-7-------(7)----------|-4-------(4)---------------| |---------------7--7-6-|---------------------------| |----------------------|---------------------------| |----------------------|---------------------------| | | ~~~~~~~~~~~~ ~~~~~~~~~~~~ | H +E
        E        
  Q. H +E
        E        
  Q. |----------------------|---------------------------| |----------------------|---------------------------| |----------------------|---------------------------| |---------------7------|---------------6-----------| |-5-------(5)----------|---------------------------| |----------------------|-9-------(9)---------------|  A
        A        
5/F#
       F#       
  E7
       E7       
  Q  E
        E        
. S S S E
        E        
 E
        E        
 E
        E        
Q  E
        E        
. S S S E
        E        
 E
        E        
 E
        E        
|-------------------------------|----------------------------| |----10--10--x--10-----10-------|------9--9--x--9----9-------| |-----9---9--x---9------9-------|------7--7--x--7----7-------| |-----7---7--x---7------7-------|------9--9--x--9----9-------| |-9---9------------9--------9---|---7--7----------7------7---| |-------------------------------|----------------------------| | | ~~~~~~~~~~~~~~ ~~~~~~~~~~~~ | H +E
        E        
  S S S S S S H +Q S S S S |-------------------------------|----------------------------| |-7---------(7)----7-9-10-7-9-7-|---9-------(9)-----10-9-7---| |-------------------------------|--------------------------9-| |-------------------------------|----------------------------| |-------------------------------|----------------------------| |-------------------------------|----------------------------| | | ~~~~~~~~~~~~~~ ~~~~~~~~~~~~ | H +E
        E        
   E
        E        
 E
        E        
 E
        E        
a H +E
        E        
   E
        E        
 E
        E        
 E
        E        
|-------------------------------|----------------------------| |-------------------------------|----------------------------| |-------------------------------|----------------------------| |------------------6----7---9---|-----------------9--7---6---| |-9---------(9)-----------------|-5s7-------(7)--------------| |-------------------------------|----------------------------|  F#m
       F#m       
/D
        D        
  C#7
       C#7       
  Q  E
        E        
. S S S E
        E        
 E
        E        
 E
        E        
Q  E
        E        
. S S S E
        E        
 E
        E        
 E
        E        
|--------------------------------|------------------------| |-------7-----7--x--7----7-------|-----6--6--x-6---6------| |-------6-----6--x--6----6-------|-----4--4--x-4---4------| |-------7-----7--x--7----7-------|-----6--6--x-6---6------| |--5----5-------------5------5---|--4--4---------4---4----| |--------------------------------|------------------------| | | ~~~~~~~~ ~~~~~~~~~~~ TP TP | Q +E
        E        
  S S Q +E
        E        
  S S H Q  E
        E        
 E
        E        
|----------------7------(7)----7-|--9-------10-----9-7----| |-10--(10)-9-10--9------(9)-10---|-10-------12------------| |--7---(7)-----------------------|------------------------| |--------------------------------|------------------------| |--------------------------------|------------------------| |--------------------------------|------------------------| | | ~~~~~~~~~~~~~~~~~ ~~ | H +E
        E        
   E
        E        
 E
        E        
 E
        E        
H  E
        E        
 E
        E        
 E
        E        
 E
        E        
|--------------------------------|------------------------| |--------------------------------|------------------------| |--------------------------------|------------------------| |---------------------7--7---6---|---------------7-6------| |--5------------(5)--------------|-----------7-------7----| |--------------------------------|--9---------------------|  A
        A        
5/F#
       F#       
  E7
       E7       
  Q  E
        E        
. S S S E
        E        
 E
        E        
 E
        E        
Q  E
        E        
. S S S  E
        E        
 E
        E        
 E
        E        
|-----------------------------------|--------------------------------| |-----10--10---x--10------10--------|------9--9--x--9-------9--------| |------9---9---x---9-------9--------|------7--7--x--7-------7--------| |------7---7---x---7-------7--------|------9--9--x--9-------9--------| |--9---9-------------9----------9---|---7--7-----------7---------7---| |-----------------------------------|--------------------------------| | | ~~~~~~~~~~~~~~~ ~~~~~~~~~~~~ | H +E
        E        
  S S S S S S H +E
        E        
  S S S S S S |-----------------------------------|--------------------------------| |-10---------(10)----9-10-12-9-10-9-|---9-------(9)---12-10-9-10-9---| |-11---------(11)-------------------|---9-------(9)----------------9-| |-----------------------------------|--------------------------------| |-----------------------------------|--------------------------------| |-----------------------------------|--------------------------------| | | ~~~~~~~~~~~~~~~ ~~~~~~~~~~~~ | H +E
        E        
   E
        E        
 E
        E        
 E
        E        
a H +E
        E        
   E
        E        
 E
        E        
 E
        E        
|-----------------------------------|--------------------------------| |-----------------------------------|--------------------------------| |-----------------------------------|--------------------------------| |--------------------6-----7----9---|------------------9----7----6---| |--9----------(9)-------------------|-5s7-------(7)------------------| |-----------------------------------|--------------------------------|  F#m
       F#m       
/D
        D        
  C#7
       C#7       
  Q  E
        E        
. S S S E
        E        
 E
        E        
 E
        E        
Q  E
        E        
. S S S  E
        E        
 E
        E        
 E
        E        
|----------------------|-----------------------| |----7--7--x--7----7---|-----6--6--x-6----6----| |----6--6--x--6----6---|-----4--4--x-4----4----| |----7--7--x--7----7---|-----6--6--x-6----6----| |-5--5----------5----5-|--4--4----------4----4-| |----------------------|-----------------------| | | ~~~~~~~~~~~~ ~~ | H +E
        E        
   E
        E        
 E
        E        
 E
        E        
H  E
        E        
 E
        E        
 E
        E        
 E
        E        
|----------------------|-----------------------| |-7-------(7)---9-10-9-|---------------10-9----| |-7-------(7)----------|-10-------10--------10-| |----------------------|-11--------------------| |----------------------|-----------------------| |----------------------|-----------------------| | | ~~~~~~~~~~~~ ~~ | H +E
        E        
   E
        E        
 E
        E        
 E
        E        
H  E
        E        
 E
        E        
 E
        E        
 E
        E        
|----------------------|-----------------------| |----------------------|-----------------------| |----------------------|-----------------------| |---------------6--7-6-|----------------7-6----| |-5-------(5)----------|-----------4---------4-| |----------------------|--9--------------------| Interlude  A
        A        
5/F#
       F#       
  E7
       E7       
   G
        G        
tr I Q  E
        E        
. S S S E
        E        
 E
        E        
 E
        E        
Q  E
        E        
. S S S E
        E        
 E
        E        
 E
        E        
|-------------------------|---------------------| |------10--10-x-10---10---|------9--9-x-9---9---| |-------9---9-x--9----9---|------7--7-x-7---7---| |-------7---7-x--7----7---|------9--9-x-9---9---| |---9---9----------9----9-|---7--7--------7---7-| |-------------------------|---------------------| | | W W |-------------------------|---------------------| |-------------------------|---------------------| |-/11---------------------|-/13-----------------| |-------------------------|---------------------| |-------------------------|---------------------| |-------------------------|---------------------| | | G
        G        
tr II | W W |-------------------------|---------------------| |-------------------------|---------------------| |-------------------------|---------------------| |-------------------------|---------------------| |---5---------------------|---7-----------------| |-------------------------|---------------------| To C
        C        
oda  F#m
       F#m       
/D
        D        
  C#7
       C#7       
  E7
       E7       
  Q  E
        E        
. S S S E
        E        
 E
        E        
 E
        E        
H H |---------------------|------------------| |------7--7-x-7---7---|-^-6----^-9-------| |------6--6-x-6---6---|-^-4----^-7-------| |------7--7-x-7---7---|-^-6----^-9-------| |---5--5--------5---5-|-^-4----^-7-------| |---------------------|------------------| | | W H Q Q |---------------------|------------------| |---------------------|------------------| |-/14-----------------|-/16----/18-------| |---------------------|-------------19---| |---------------------|------------------| |---------------------|------------------| | | W H Q Q |---------------------|------------------| |---------------------|------------------| |---------------------|------------------| |---------------------|------------------| |---9-----------------|--11-----12-------| |---------------------|-------------12--|  A
        A        
5/F#
       F#       
   D/F#
      D/F#      
Q  E
        E        
S S S S E
        E        
 E
        E        
S S Q  E
        E        
S  E
        E        
E
        E        
 E
        E        
 E
        E        
|------------------------------|-----------------------------| |------10-10-10---7---10---x-x-|-------10-10-10-10---7----7--| |--7----9--9--9-x-9----9---x-x-|--------7--7--7--7---7----9--| |-------7--7--7-x-7----7---x-x-|--------7--7--7--7---7---(7)-| |--9----------------9----------|---9---------------9---------| |------------------------------|-----------------------------| | | > | W +W |------------------------------|-----------------------------| |------------------------------|-----------------------------| |------------------------------|-----------------------------| |------------------------------|-----------------------------| |-17---------------------------|-(17)------------------------| |------------------------------|-----------------------------| | | H. S S E
        E        
H. S S  E
        E        
|------------------------------|-----------------------------| |------------------------------|-----------------------------| |------------------------------|-----------------------------| |----------------------4-5-4---|---------------------4-5--4--| |--5---------------------------|---5-------------------------| |------------------------------|-----------------------------|  D
        D        
.S. al C
        C        
oda  A/C#
      A/C#      
 D
        D        
5/B
        B        
  Q  E
        E        
S S S S E
        E        
 E
        E        
 E
        E        
Q  E
        E        
S S S S E
        E        
 E
        E        
 E
        E        
|--------------------|-------------------------------| |--------------------|-------------------------------| |----9-9-9---7-------|-------7---7-7---6-----6--7----| |----7-7-7-x-7-----7-|-------7---7-7-x-7-----7-(7)---| |----7-7-7-x-7---7---|-------5---5-5-x-5-----5-(5)---| |-9------------9-----|---7---------------7-----------| | | W W |--------------------|-------------------------------| |--------------------|-------------------------------| |--------------------|-------------------------------| |--------------------|-------------------------------| |--------------------|-------------------------------| |--------------------|-------------------------------| | | Q  E
        E        
H  E
        E        
E
        E        
 E
        E        
 E
        E        
a Q S S E
        E        
 E
        E        
|--------------------|-------------------------------| |--------------------|-------------------------------| |--------------------|-------------------------------| |----x-7-------------|-4h5-4-2-2h4-------4h5p4--2----| |----x---------------|-------------------------------| |-5----------------5-|-------------------------------| &  A
        A        
5/F#
       F#       
   D/F#
      D/F#      
Q  E
        E        
S S S S E
        E        
 E
        E        
S S Q  E
        E        
S  E
        E        
E
        E        
 E
        E        
 E
        E        
|---------------------------|---------------------------| |-----10-10-10---7---10-x-x-|-------10-10-10-10---7--7--| |--7---9--9--9-x-9----9-x-x-|--------7--7--7--7---7--9--| |------7--7--7-x-7----7-x-x-|--------7--7--7--7---7-(7)-| |--9---------------9--------|---9---------------9-------| |---------------------------|---------------------------| | | > | W +W |---------------------------|---------------------------| |---------------------------|---------------------------| |---------------------------|---------------------------| |-12------------------------|-(12)----------------------| |--5------------------------|--(5)----------------------| |---------------------------|---------------------------|  A/C#
      A/C#      
 D
        D        
5/B
        B        
  Q  E
        E        
S S S S E
        E        
 E
        E        
 E
        E        
Q  E
        E        
S S S S  E
        E        
 E
        E        
 E
        E        
|--------------------|-------------------------------------------------------| |--------------------|-------------------------------------------------------| |----9-9-9---7-------|-------------7-----7---7-------6---------6------7------| |----7-7-7-x-7-----7-|-------------7-----7---7---x---7---------7-----(7)-----| |----7-7-7-x-7---7---|-------------5-----5---5---x---5---------5-----(5)-----| |-9------------9-----|-7---------------------------------7-------------------| | | G
        G        
tr II | < | H  E
        E        
 E
        E        
 E
        E        
 E
        E        
 E
        E        
 E
        E        
 E
        E        
 E
        E        
 E
        E        
 E
        E        
 E
        E        
 E
        E        
|--------------------|-------------------------------------------------------| |--------------------|-------------------------------------------------------| |----------7---7-7-7-|-7-----7-----7-----7-------7-------7-----7------7------| |----------7---7-7-7-|-7-----7-----7-----7-------7-------7-----7------7------| |----------5---5-5-5-|-5-----5-----5-----5-------5-------5-----5------5------| |--------------------|-------------------------------------------------------| | | G
        G        
tr III | |-3-| |-3-| |-3-| |--3--| |--3--| |-3-| |-3-| |-3-| | W S S S S S S S S S S S S S S S S S S S S S S S S |--------------------|-------------------------------------------------------| |--------------------|------------------------------------------------5h7h8--| |--------------------|-----------------------------------------4h5h7---------| |--------------------|---------------------------4h5h==7-4h5h7---------------| |--------------------|-------------3h5h7-3h5h==7-----------------------------| |--------------------|-3h5h7-3h5h7-------------------------------------------|  G
        G        
uitar Solo A/E
       A/E       
  Esus
       Esus      
4/A
        A        
   D
        D        
5/E
        E        
   A
        A        
Dsus
       Dsus      
2/A
        A        
   G
        G        
trs I, II Q  E
        E        
 E
        E        
+Q. S S Q  E
        E        
 E
        E        
+Q  E
        E        
 E
        E        
|--------------------------|-----------------------------------| |-2------------0-(0)---x-x-|-3--------2--(2)---2---------3-----| |-2------------2-(2)---x-x-|-2--------2--(2)---2---------2-----| |-2------------2-(2)---x-x-|-2--------2--(2)--(2)-------(2)----| |------------0-0-(0)-------|-------0--0--(0)--(0)-------(0)----| |--------------------------|-----------------------------------| | | G
        G        
tr III | ~~~~~~~~~~~~~~~~~ ~~~ | |------3------| | S S H.  E
        E        
Q. +Q.  E
        E        
+E
        E        
   E
        E        
|-----5-5--------------5---|-9b10----(9)-------9b10-(9)--------| |-7b9---8b10---------------|--------------------------------10-| |--------------------------|-----------------------------------| |--------------------------|-----------------------------------| |--------------------------|-----------------------------------| |--------------------------|-----------------------------------| C/E
       C/E       
   Em
       Em       
/C
        C        
   G
        G        
5/E
        E        
   C
        C        
 Em7
       Em7       
/C
        C        
  Em
       Em       
/C
        C        
  Q  E
        E        
 E
        E        
+Q. S S Q  E
        E        
 E
        E        
+E
        E        
   E
        E        
 E
        E        
 E
        E        
|-----------------------|------------------------------------------| |---1------0-(0)----x-x-|-----3---------1--(1)--1------3------0----| |---0------0-(0)----x-x-|-----0---------0--(0)--0------0------0----| |---2------2-(2)----x-x-|-----2---------2--(2)-(2)----(2)----(2)---| |-------3--3-(3)--------|----------3----3--(3)-(3)----(3)----(3)---| |-----------------------|------------------------------------------| | | ~~ | |---3---| |------3-------| | Q. H  E
        E        
a Q Q Q Q Q Q |-----------------------|------------------------------------------| |---------12------------|-12h13-12---------------------------------| |-/12--------------12---|------------12----------------------------| |-----------------------|-----------------/15------14-----12-------| |-----------------------|------------------------------------------| |-----------------------|------------------------------------------| A/E
       A/E       
  Esus
       Esus      
4/A
        A        
   D
        D        
5/E
        E        
   A
        A        
Dsus
       Dsus      
2/C/E
       C/E       
  Q  E
        E        
 E
        E        
+Q. S S Q  E
        E        
 E
        E        
+Q  E
        E        
 E
        E        
|------------------------|-------------------------------------| |--2--------0-(0)----x-x-|--3--------2-(2)--------------2---3--| |--2--------2-(2)----x-x-|--2--------2-(2)--------------2---2--| |--2--------2-(2)----x-x-|--2--------2-(2)-------------(2)-(2)-| |--------0--0-(0)--------|--------0--0-(0)-------------(0)-(0)-| |------------------------|-------------------------------------| | | ~~ | Q. H  E
        E        
Q. Q T T T T  E
        E        
 E
        E        
|----------12-------12---|-15b17----12-----12h13p12----12------| |-10---------------------|--------------------------15-----15--| |-12b14------------------|-------------------------------------| |------------------------|-------------------------------------| |------------------------|-------------------------------------| |------------------------|-------------------------------------|  Em
       Em       
/C
        C        
   G
        G        
5/E
        E        
   C
        C        
 Em7
       Em7       
/Em/C
        C        
  Q  E
        E        
 E
        E        
+Q. S S Q  E
        E        
 E
        E        
+E
        E        
   E
        E        
 E
        E        
 E
        E        
|----------------------|----------------------------------| |--1------0-(0)----x-x-|--3--------1-(1)--1-----3---0-----| |--0------0-(0)----x-x-|--0--------0-(0)--0-----0---0-----| |--2------2-(2)----x-x-|--2--------2-(2)-(2)---(2)-(2)----| |------3--3-(3)--------|--------3--3-(3)-(3)---(3)-(3)----| |----------------------|----------------------------------| | | Q. H  E
        E        
 E
        E        
 E
        E        
 E
        E        
Q S S  E
        E        
S S |----------------------|----------------------------------| |-13-----12------------|----------------------------------| |-----------------12---|----12-----------------12---------| |----------------------|-12----12--------12h14-----12h14--| |----------------------|----------15----------------------| |----------------------|----------------------------------| A/E
       A/E       
  Esus
       Esus      
4/A
        A        
   D
        D        
5/E
        E        
   A
        A        
 A
        A        
Dsus
       Dsus      
2/A
        A        
  Q  E
        E        
 E
        E        
+Q. S S Q  E
        E        
 E
        E        
+Q  E
        E        
 E
        E        
|----------------------|-------------------------------------| |--2------0-(0)----x-x-|--3------2--(2)---2------3-----------| |--2------2-(2)----x-x-|--2------2--(2)---2------2-----------| |--2------2-(2)----x-x-|--2------2--(2)--(2)----(2)----------| |------0--0-(0)--------|------0--0--(0)--(0)----(0)----------| |----------------------|-------------------------------------| | | Q  E
        E        
H  E
        E        
Q  E
        E        
Q. S S T T T T |----------------------|-----------------15--14-12--14-12----| |--------12------------|-15-----14------------------------15-| |-14-------------------|-------------------------------------| |-----12----------12---|-----12------------------------------| |----------------------|-------------------------------------| |----------------------|-------------------------------------| C/E
       C/E       
   Em
       Em       
/C
        C        
   G
        G        
5/E
        E        
   C
        C        
 Em7
       Em7       
/Em/C
        C        
  Q  E
        E        
 E
        E        
+Q. S S Q  E
        E        
 E
        E        
+E
        E        
   E
        E        
 E
        E        
 E
        E        
|------------------------|----------------------------------| |--1--------0-(0)----x-x-|-----3--------1-(1)--1---3---0----| |--0--------0-(0)----x-x-|-----0--------0-(0)--0---0---0----| |--2--------2-(2)----x-x-|-----2--------2-(2)-(2)-(2)-(2)---| |--------3--3-(3)--------|-----------3--3-(3)-(3)-(3)-(3)---| |------------------------|----------------------------------| | | ~~ | Q. H  E
        E        
a  E
        E        
 E
        E        
 E
        E        
H S S |------------------------|----------------------------------| |-15b17----15-------12---|-12h13-12----13-------------------| |------------------------|----------12----------------------| |------------------------|----------------------------12h14-| |------------------------|----------------------------------| |------------------------|----------------------------------| A/E
       A/E       
  Esus
       Esus      
4/A
        A        
   D
        D        
5/E
        E        
   A
        A        
 A
        A        
Dsus
       Dsus      
2/A
        A        
  Q  E
        E        
 E
        E        
+Q. S S Q  E
        E        
 E
        E        
+Q  E
        E        
 E
        E        
|----------------------|-----------------------------------| |--2------0-(0)----x-x-|--3------2-(2)--------2------3-----| |--2------2-(2)----x-x-|--2------2-(2)--------2------2-----| |--2------2-(2)----x-x-|--2------2-(2)-------(2)----(2)----| |------0--0-(0)--------|------0--0-(0)-------(0)----(0)----| |----------------------|-----------------------------------| | | Q  E
        E        
H  E
        E        
Q  E
        E        
Q S S S S S S |----------------------|--------12-----15-14-12--14-15--12-| |--------12------------|-15--------------------------------| |-14-------------------|-----------------------------------| |-----12----------12---|-----12----------------------------| |----------------------|-----------------------------------| |----------------------|-----------------------------------| | | G
        G        
tr I | W W |----------------------|-----------------------------------| |----------------------|-----------------------------------| |----------------------|-----------------------------------| |----------------------|-----------------------------------| |----------------------|-----------------------------------| |----------------------|-----------------------------------| C/E
       C/E       
   Em
       Em       
/C
        C        
   G
        G        
5/E
        E        
   C
        C        
 Em7
       Em7       
/Em/C
        C        
   G
        G        
tr II > Q  E
        E        
 E
        E        
+Q. S S Q  E
        E        
 E
        E        
+E
        E        
   E
        E        
 E
        E        
 E
        E        
|---------------------------|------------------------------------| |--1--------0----(0)----x-x-|--3--------1------(1)---1---3---0---| |--0--------0----(0)----x-x-|--0--------0------(0)---0---0---0---| |--2--------2----(2)----x-x-|--2--------2------(2)--(2)-(2)-(2)--| |--------3--3----(3)--------|--------3--3------(3)--(3)-(3)-(3)--| |---------------------------|------------------------------------| | | > | ~~~~~ ~~~~~~~~~~~~ | Q. H  E
        E        
 E
        E        
 E
        E        
 E
        E        
 E
        E        
+H |-15b17----17b19-------19---|-22-19-22-22b24==(22)r--------------| |---------------------------|------------------------------------| |---------------------------|------------------------------------| |---------------------------|------------------------------------| |---------------------------|------------------------------------| |---------------------------|------------------------------------| | | < | W Q  E
        E        
 E
        E        
+E
        E        
   E
        E        
 E
        E        
 E
        E        
|---------------------------|------------------------------------| |---------------------------|--3--------1------(1)---1---3---0---| |---------------------------|--0--------0------(0)---0---0---0---| |---------------------------|--2--------2------(2)--(2)-(2)-(2)--| |---------------------------|--------3--3------(3)--(3)-(3)-(3)--| |---------------------------|------------------------------------| Outro Esus
       Esus      
4/A
        A        
   A
        A        
Dsus
       Dsus      
2/A
        A        
   A
        A        
 D
        D        
sAs2/A
        A        
   G
        G        
tr I  E
        E        
E
        E        
S S S E
        E        
E
        E        
S S S  E
        E        
E
        E        
S S S E
        E        
S S E
        E        
 E
        E        
|-----0-----------0-------|-----0-----------0-0-0-| |-0-0-0-0---0-2-2-2-2---2-|-3-3-3-3---3-2-2-2-3-2-| |-2-2-2-2-2-2-2-2-2-2-2-2-|-2-2-2-2-2-2-2-2-2-2-2-| |-2-2-2-2-2-2-2-2-2-2-2-2-|-2-2-2-2-2-2-2-2-2-2-2-| |-0-0-0-0-0-0-0-0-0-0-0-0-|-0-0-0-0-0-0-0-0-0-0-0-| |-------------------------|-----------------------|  Em
       Em       
/A
        A        
   Em
       Em       
/C
        C        
  Em7
       Em7       
/B
        B        
   E
        E        
E
        E        
S S S E
        E        
E
        E        
S S S  E
        E        
E
        E        
S S S E
        E        
S S E
        E        
S S |-----0-----------0-------|-----0-----------0-0-0-0-| |-0-0-0-0---0-0-0-0-0---0-|-0-0-0-0---0-0-0-0-0-0-0-| |-0-0-0-0-0-0-0-0-0-0-0-0-|-0-0-0-0-0-0-0-0-0-0-0-0-| |-2-2-2-2-2-2-2-2-2-2-2-2-|-2-2-2-2-2-2-2-2-2-0-0-0-| |-0-0-0-0-0-0-0-0-0-0-0-0-|-0-0-0-0-0-0-3-3-3-2-2-2-| |-------------------------|-------------------------| Esus
       Esus      
4/A
        A        
   A
        A        
Dsus
       Dsus      
2/A
        A        
   A
        A        
 D
        D        
sAs2/A
        A        
   E
        E        
E
        E        
S S S  E
        E        
E
        E        
S S S  E
        E        
E
        E        
S S S E
        E        
S S  E
        E        
 E
        E        
|------0-------------0-------|------0-----------0---0-0-| |-0--0-0-0---0--2--2-2-2---2-|-3--3-3-3---3-2-2-2---3-2-| |-2--2-2-2-2-2--2--2-2-2-2-2-|-2--2-2-2-2-2-2-2-2---2-2-| |-2--2-2-2-2-2--2--2-2-2-2-2-|-2--2-2-2-2-2-2-2-2---2-2-| |-0--0-0-0-0-0--0--0-0-0-0-0-|-0--0-0-0-0-0-0-0-0---0-0-| |----------------------------|--------------------------| | | G
        G        
tr II | Q.  E
        E        
+H Q. Q  E
        E        
E
        E        
 E
        E        
|----------------------------|--------------------------| |----------------------------|--------------------------| |----------6---(6)-----------|----------6---------6h7-6-| |-7--------------------------|-7--------------7---------| |----------------------------|--------------------------| |----------------------------|--------------------------|  Em
       Em       
/A
        A        
   Em
       Em       
/C
        C        
   Em7
       Em7       
/B
        B        
   E
        E        
E
        E        
S S S E
        E        
E
        E        
S S S  E
        E        
E
        E        
S S S  E
        E        
S S E
        E        
S S |-----0-----------0-------|-------0------------0-0-0-0-| |-0-0-0-0---0-0-0-0-0---0-|--0--0-0-0---0--0-0-0-0-0-0-| |-0-0-0-0-0-0-0-0-0-0-0-0-|--0--0-0-0-0-0--0-0-0-0-0-0-| |-2-2-2-2-2-2-2-2-2-2-2-2-|--2--2-2-2-2-2--2-2-2-0-0-0-| |-0-0-0-0-0-0-0-0-0-0-0-0-|--0--0-0-0-0-0--3-3-3-2-2-2-| |-------------------------|----------------------------| | | W +H Q  E
        E        
 E
        E        
|-------------------------|----------------------------| |-------------------------|----------------------------| |-------------------------|----------------------------| |-------------------------|----------------------------| |-7-----------------------|-(7)-----------10-----9-7---| |-------------------------|----------------------------| Esus
       Esus      
4/A
        A        
   A
        A        
Dsus
       Dsus      
2/A
        A        
   A
        A        
Dsus
       Dsus      
A/A
        A        
   E
        E        
E
        E        
S S S  E
        E        
E
        E        
S S S  E
        E        
E
        E        
S S S E
        E        
S S  E
        E        
 E
        E        
||---------0-----------------0---------|--------0---------------0---0---0----| ||o-0----0-0---0---0--2----2-2---2---2-|-3----3-3---3---3-2---2-2---3---2----| ||--2----2-2---2-2-2--2----2-2---2-2-2-|-2----2-2---2-2-2-2---2-2---2---2----| ||--2----2-2---2-2-2--2----2-2---2-2-2-|-2----2-2---2-2-2-2---2-2---2---2----| ||o-0----0-0---0-0-0--0----0-0---0-0-0-|-0----0-0---0-0-0-0---0-0---0---0----| ||-------------------------------------|-------------------------------------| | | Q.  E
        E        
+H Q. Q  E
        E        
E
        E        
 E
        E        
||-------------------------------------|-------------------------------------| ||o------------------------------------|-------------------------------------| ||---------------6---(6)---------------|--------------6-----------6h7---6----| ||--7----------------------------------|-7--------------------7--------------| ||o------------------------------------|-------------------------------------| ||-------------------------------------|-------------------------------------| | |  G
        G        
tr VI | S S S S S S S S S S S S S S S S S S S S S S S S S S S S S S S S ||--0------0-----0----0------0-----0---|-0------0-----0---0-----0------------| ||o----0-----0-----0-----2-----2-----2-|----3-----3-----3---2-------3---2----| ||-------2-----2-----------2-----2-----|------2-----2---------2-------2---2--| ||-------------------------------------|-------------------------------------| ||o------------------------------------|-------------------------------------| ||-------------------------------------|-------------------------------------|  Em
       Em       
/A
        A        
   Em
       Em       
/C
        C        
   Em7
       Em7       
/B
        B        
   E
        E        
E
        E        
S S S E
        E        
E
        E        
S S S  E
        E        
E
        E        
S S S  E
        E        
S S E
        E        
S S |-------0---------------0---------|---------0----------------0-0---0-0--|| |-0---0-0---0---0-0---0-0---0---0-|--0----0-0---0---0--0---0-0-0---0-0-o|| |-0---0-0---0-0-0-0---0-0---0-0-0-|--0----0-0---0-0-0--0---0-0-0---0-0--|| |-2---2-2---2-2-2-2---2-2---2-2-2-|--2----2-2---2-2-2--2---2-2-0---0-0--|| |-0---0-0---0-0-0-0---0-0---0-0-0-|--0----0-0---0-0-0--3---3-3-2---2-2-o|| |---------------------------------|-------------------------------------|| | | W +H Q  E
        E        
 E
        E        
|---------------------------------|-------------------------------------|| |---------------------------------|------------------------------------o|| |---------------------------------|-------------------------------------|| |---------------------------------|-------------------------------------|| |-7-------------------------------|-(7)---------------10-------9---7---o|| |---------------------------------|-------------------------------------|| | | S S S S S S S S S S S S S S S S S S S S S S S S S S S S S S S S |-0-----0-----0---0-----0-----0---|--0------0-----0----0-----0----------|| |---0-----0-----0---0-----0-----0-|-----0-----0-----0----0-----3---0---o|| |-----0-----0---------0-----0-----|-------0-----0----------0-----0---0--|| |---------------------------------|-------------------------------------|| |---------------------------------|------------------------------------o|| |---------------------------------|-------------------------------------|| Esus
       Esus      
4/A
        A        
   A
        A        
Dsus
       Dsus      
2/A
        A        
   A
        A        
Dsus
       Dsus      
A/A
        A        
   E
        E        
E
        E        
S S S  E
        E        
E
        E        
S S S  E
        E        
E
        E        
S S S E
        E        
S S  E
        E        
 E
        E        
||---------0-----------------0---------|--------0---------------0---0---0----| ||o-0----0-0---0---0--2----2-2---2---2-|-3----3-3---3---3-2---2-2---3---2----| ||--2----2-2---2-2-2--2----2-2---2-2-2-|-2----2-2---2-2-2-2---2-2---2---2----| ||--2----2-2---2-2-2--2----2-2---2-2-2-|-2----2-2---2-2-2-2---2-2---2---2----| ||o-0----0-0---0-0-0--0----0-0---0-0-0-|-0----0-0---0-0-0-0---0-0---0---0----| ||-------------------------------------|-------------------------------------| | | Q.  E
        E        
+H Q. Q  E
        E        
E
        E        
 E
        E        
||-------------------------------------|-------------------------------------| ||o-0------------2---(2)---------------|-0------------2-----------2h3---2----| ||--2------------2---(2)---------------|-2------------2-------2--------------| ||-------------------------------------|-------------------------------------| ||o------------------------------------|-------------------------------------| ||-------------------------------------|-------------------------------------| | | S S S S S S S S S S S S S S S S S S S S S S S S S S S S S S S S ||--0------0-----0----0------0-----0---|-0------0-----0---0-----0------------| ||o----0-----0-----0-----2-----2-----2-|----3-----3-----3---2-------3---2----| ||-------2-----2-----------2-----2-----|------2-----2---------2-------2---2--| ||-------------------------------------|-------------------------------------| ||o------------------------------------|-------------------------------------| ||-------------------------------------|-------------------------------------|  Em
       Em       
/A
        A        
   Em
       Em       
/C
        C        
   Em7
       Em7       
/B
        B        
   E
        E        
E
        E        
S S S E
        E        
E
        E        
S S S  E
        E        
E
        E        
S S S  E
        E        
S S E
        E        
S S |-------0---------------0---------|---------0----------------0-0---0-0--|| |-0---0-0---0---0-0---0-0---0---0-|--0----0-0---0---0--0---0-0-0---0-0-o|| |-0---0-0---0-0-0-0---0-0---0-0-0-|--0----0-0---0-0-0--0---0-0-0---0-0--|| |-2---2-2---2-2-2-2---2-2---2-2-2-|--2----2-2---2-2-2--2---2-2-0---0-0--|| |-0---0-0---0-0-0-0---0-0---0-0-0-|--0----0-0---0-0-0--3---3-3-2---2-2-o|| |---------------------------------|-------------------------------------|| | | W +H Q  E
        E        
 E
        E        
|---------------------------------|-------------------------------------|| |---------------------------------|------------------------------------o|| |-0-------------------------------|-(0)---------------------------------|| |-2-------------------------------|-(2)---------------------------------|| |---------------------------------|-------------------10-------9---7---o|| |---------------------------------|--------------------8-------7---5----|| | | S S S S S S S S S S S S S S S S S S S S S S S S S S S S S S S S |-0-----0-----0---0-----0-----0---|--0------0-----0----0-----0----------|| |---0-----0-----0---0-----0-----0-|-----0-----0-----0----0-----3---0---o|| |-----0-----0---------0-----0-----|-------0-----0----------0-----0---0--|| |---------------------------------|-------------------------------------|| |---------------------------------|------------------------------------o|| |---------------------------------|-------------------------------------|| Duration Legend --------------- W - whole; H - half; Q - quarter; E
        E        
- 8th; S - 16th; T - 32nd; X - 64th; a - acciaccatura + - note tied to previous; . - note dotted; .. - note double dotted Uncapitalized letters represent notes that are staccato (1/2 duration) Irregular groupings are notated above the duration line Duration letters will always appear directly above the note/fret number it represents the duration for.  D
        D        
uration letters with no fret number below them represent rests. Multi- bar rests are notated in the form Wxn, where n is the number of bars to rest for. Low melody durations appear below the staff Tablature Legend ---------------- h - hammer-on p - pull-off b - bend pb - pre-bend r - bend release (if no number after the r, then release immediately) / - slide into or out of (from/to "nowhere") s - legato slide S - shift slide - natural harmonic [n] - artificial harmonic n(n) - tapped harmonic ~ - vibrato tr - trill T - tap TP - trem. picking PM - palm muting / - tremolo bar dip; n = amount to dip - tremolo bar down n/ - tremolo bar up /n - tremolo bar inverted dip = - hold bend; also acts as connecting device for hammers/pulls - volume swell (louder/softer) x - on rhythm slash represents muted slash o - on rhythm slash represents single note slash Misc Legend ----------- | - bar || - double bar ||o - repeat start o|| - repeat end *| - double bar (ending) : - bar (freetime) $ - Segno & - C
        C        
oda Tempo markers - = B
        B        
PM(8/16=s8/s16), where s8 = swing 8ths, s16 = swing 16ths *************************************************************************************** * G
        G        
enerated using Power Tab E
        E        
ditor by B
        B        
rad Larsen - http://powertab.guitarnetwork.org * ***************************************************************************************

Este fichero es trabajo propio de su transcriptor y representa su interpretación personal de la canción. El material contenido en esta página es para exclusivo uso privado, por lo que se prohibe su reproducción o retransmisión, así como su uso para fines comerciales.