Quietdrive - Time After Time (TAB)


intro 
 
E------------------------| 
B------------------------| 
G-----------9------------| 
D------10------10----10--|   x2 
A------------------------| 
E----8----8--------8-----| 
 
E-------------------------| 
B-------------------------| 
G-----------9-------------| 
D------10------10-----10--| 
A----7----7--------7------| 
E-------------------------| 
 
E-------------------------| 
B-------------------------| 
G-----------9-------------| 
D------10------10-----10--| 
A----8----8--------7------| 
E-------------------------| 
 
 
pre-chorus 
 
E-----------------------------------------------------------------------| 
B-----------------------------------------------------------------------| 
G----5-5-5---7-7-7--4-4-4--5-5-5-5-5--------------5-5-5--7-7-7--4-4-4---| 
D----5-5-5---7-7-7--4-4-4--5-5-5-5-5--3-3-3-3-3-3-5-5-5--7-7-7--4-4-4---| 
A----3-3-3---5-5-5--2-2-2--3-3-3-3-3--3-3-3-3-3-3-3-3-3--5-5-5--2-2-2---| 
E-------------------------------------1-1-1-1-1-1-----------------------| 
  
E----------------------------------------------------------------| 
B----------------------------------------------------------------| 
G----------------------------------------------------------------| 
D---5-5-5--------------------------------------------------------| 
A---5-5-5--------------------------------------------------------| 
E---3-3-3--------------------------------------------------------| 
 
Chorus 
 
E----------------------------------------------------------------| 
B----------------------------------------------------------------| 
G--------------------------------------------5-5-5-5-5-5---------| 
D--5-5-5-5-5-5-5--7-7-7-7-7-7--3-3-3--5-5-5--5-5-5-5-5-5---------| 
A--5-5-5-5-5-5-5--7-7-7-7-7-7--3-3-3--5-5-5--3-3-3-3-3-3---------| 
E--3-3-3-3-3-3-3--5-5-5-5-5-5--1-1-1--3-3-3----------------------| 
 
solo  --not exact, but it works 
 
E---8-8-8-7---7-7---5-5-5---3-3-3--3-3-3-5-3-1-0--0-1-------1-7----| 
B-----------------------------------------------------3------------| 
G------------------------------------------------------------------| 
D------------------------------------------------------------------|   x2 
A------------------------------------------------------------------| 
E------------------------------------------------------------------|

Este fichero es trabajo propio de su transcriptor y representa su interpretación personal de la canción. El material contenido en esta página es para exclusivo uso privado, por lo que se prohibe su reproducción o retransmisión, así como su uso para fines comerciales.