Quiet Riot - Picking Up The Pieces (TAB)


jacobsmithuklive.co.uk 
Picking up the pieces  
Quiet riot  
1979  
Randy rhoads years        
 
                                            Wha | 
e|----------------------------------|------------|---|--------------|---------------| 
B|--------8--8-7------8--8--8-7-----|---3--3-3--2|---|--------8--8-7|------8--8--8-7| 
G|--------9--9-7------9--9--9-7-----|---0--0-0--2|pau|--------9--9-7|------9--9--9-7| 
D|--0-0-0--------0-0--0--0--0-------|---0--0-0--2|se-|--0-0-0-------|-0-0--0--0--0--| 
A|----------------------------------|---x--x-x--0|---|--------------|---------------| 
E|------------------------------10/-|---3--3-3---|---|--------------|---------------| 
 
e|-------------------| 
B|-------------------| 
G|------2------------| 
D|--3-4--------------| 
A|-------------------| 
E|-------------------| 
                                  
 
e|----------------------2---2-3------|---------------------------|-2---2-3-| 
B|----------------------3---3-3------|---------------------------|-3---3-3-| 
G|----------------------2---2-0------|-2-------2-----------------|-2---2-0-| 
D|--0-0-0-0-0-0-0-0-0---------0------|-2--3-4----0-0-0-0-0-0-0-0-|-------0-| 
A|--------------------3-------2------|-0------------------------3|-------2-| 
E|----------------------------3-2-3--|---------------------------|-------3-| 
 
 
e|--3------3-------|--------0--|--3------|-3-------|---| 
B|----5------3-0---|2------3---|-----5---|---3-0---|-2-| 
G|-4----4--------0-|--2--------|4------4-|-------0-|-2-| 
D|-----------------|----2------|---------|---------|-2-| 
A|-----------------|-----------|---------|---------|-0-| 
E|-----------------|-----------|---------|---------|---| 
 
2x 
e|------------3----------------------3-|-------------3-------------| 
B|------------3----------------------3-|-------------3-------------| 
G|---------2--0----------------------0-|---------2---0-------------| 
D|-4---4---2--0----------4---4---2---0-|-4---4---2---0---------2---| 
A|-2---2---0--0----------2---2---0---0-|-2---2---0---0---------0---| 
E|------------3---0-2-3--------------3-|-------------3---2--3------| 
 
2x 
e|------------------------------------------| 
B|-------12---10-------12---12---10---------| 
G|-------12---11-------12---12---11---------| 
D|--0-0----------0-0-----------------12--14-| 
A|------------------------------------------| 
E|------------------------------------------| 
 
Play this again  
  
        
     2x                   solo 
e|----------------|17b-17-16-15-14---------|-----------|17-17-17-17-17-17-17| 
B|---------15-----|----------------17-15-14|-14-15--17b|--------------------| 
G|-7/11/14--------|------------------------|-----------|--------------------| 
D|----------------|------------------------|-----------|--------------------| 
A|----------------|------------------------|-----------|--------------------| 
E|----------------|------------------------|-----------|--------------------| 
 
e|---------------17-|-15-14----14------------------------------------| 
B|--------15b-------|-------17----15-14----14------------------------| 
G|------------------|-------------------16----16-14----14------------| 
D|------------------|-------------------------------16----16-14----14| 
A|------------------|-------------------------------------------16---| 
E|------------------|------------------------------------------------| 
 
 
 
e|---------------------------|------15b---17b----15b--15b-| 
B|-------------------------14|----------------------------| 
G|-------------16-16-14-16---|------12b---14b----12b--12b-| 
D|----14-16-14---------------|----------------------------| 
A|-16------------------------|----------------------------| 
E|---------------------------|----------------------------| 
 
 
 
 
 
 
2x 
e|------------3----------------------3-|-------------3-------------| 
B|------------3----------------------3-|-------------3-------------| 
G|---------2--0----------------------0-|---------2---0-------------| 
D|-4---4---2--0----------4---4---2---0-|-4---4---2---0---------2---| 
A|-2---2---0--0----------2---2---0---0-|-2---2---0---0---------0---| 
E|------------3---0-2-3--------------3-|-------------3---2--3------| 
 
Then a after playing this 2 you pick slide 
 
 
e|------------3----------------------3-|-------------3-------------| 
B|------------3----------------------3-|-------------3-------------| 
G|---------2--0----------------------0-|---------2---0-------------| 
D|-4---4---2--0----------4---4---2---0-|-4---4---2---0---------2---| 
A|-2---2---0--0----------2---2---0---0-|-2---2---0---0---------0---| 
E|------------3---0-2-3--------------3-|-------------3---2--3------| 
 
e|----------------------------------|------------| 
B|--------8--8-7------8--8--8-7-----|---3--3-3--2| 
G|--------9--9-7------9--9--9-7-----|---0--0-0--2| 
D|--0-0-0--------0-0--0--0--0-------|---0--0-0--2| 
A|----------------------------------|---x--x-x--0| 
E|------------------------------10/-|---3--3-3---| 
 
e|------------------------------------------| 
B|-------12---10-------12---12---10---------| 
G|-------12---11-------12---12---11---------| 
D|--0-0----------0-0-----------------12--14-| 
A|------------------------------------------| 
E|------------------------------------------| 
 
And play how ever many times  

Este fichero es trabajo propio de su transcriptor y representa su interpretación personal de la canción. El material contenido en esta página es para exclusivo uso privado, por lo que se prohibe su reproducción o retransmisión, así como su uso para fines comerciales.