Queso - Furlan (TAB)


Queso-Furlan 
Standard Tuning 
(eadgbe) 
 
frawey your soul..(hehe) 
 
Guitar 1 
e|-------------------------------------------------| 
B|-------------------------------------------------| 
G|--7-77-77----6-66-66----5-55-55----7-77-77-------| 
D|--7-77-77-2X-7-77-77-2X-5-55-55-2X-7-77-77-2X----| 
A|--5-55-55----4-44-44----3-33-33----5-55-55-------| 
E|-------------------------------------------------| 
 
Guitar 2 
e|-----------| 
B|-----------| 
G|--7-77-77--|  
D|--x-xx-xx--| 
A|--5-55-55--| 
E|-----------| 
pakiulit na lang pu yan hanggang purity..                      
 
purity... 
 
Guitar 1 
e|---0--0---0--0---0--0---0--0-----3-3-33-3-3-33-3-3-33-----| 
B|----3--3---3--3---3--3---3--3---3---3--3---3--3---3-------| 
G|-----2--2---2--2---2--2---2--2----------------------------| 
D|--0------0------0------0------0---------------------------| 
A|----------------------------------------------------------| 
E|----------------------------------------------------------| 
 
Guitar 2 
e|----------------------------------------------------------| 
B|----------------------------------------------------------| 
G|--777777777777777777777777777777777777777777777777777-----| 
D|--777777777777777777777777777777777777777777777777777-----| 
A|--555555555555555555555555555555555555555555555555555-----| 
E|----------------------------------------------------------| 
             
 
miles i've travelled.. 
 
Guitar 1 
e|-------------------------------------------------| 
B|-------------------------------------------------| 
G|--7-77-77----6-66-66----5-55-55----7-77-77-------| 
D|--7-77-77-2X-7-77-77-2X-5-55-55-2X-7-77-77-2X----| 
A|--5-55-55----4-44-44----3-33-33----5-55-55-------| 
E|-------------------------------------------------| 
 
Guitar 2 
e|-----------| 
B|-----------| 
G|--7-77-77--|  
D|--x-xx-xx--| 
A|--5-55-55--| 
E|-----------| 
 
 
Chorus 
filan da lowv..(hehe) 
 
Guitar 1 
e|-----------------------------------------| 
B|--11111---------333333333--11111---------| 
G|--22222---------222222222--22222---------| 
D|--33333--22222-------------33333--22222--| 
A|---------22222--------------------22222--| 
E|-----------------------------------------| 
 
Guitar 2 
e|-----------------------------------------| 
B|-----------------------------------------| 
G|----------------777777777----------------| 
D|--22222--22222--777777777--22222--22222--| 
A|--22222--22222--555555555--22222--22222--| 
E|--11111--------------------11111---------| 
kapos po talaga yan.. 
 
tapos po ay biglang bibilis eto un.. 
 
Guitar 1 
e|------------------1111------------------11111111111---| 
B|--33333333--2222--1111--33333333--2222--11111111111---| 
G|--22222222--2222--0000--22222222--2222--00000000000---| 
D|------------2222--0000------------2222--00000000000---| 
A|------------------2222------------------22222222222---| 
E|------------------3333------------------33333333333---| 
  
Guitar 2 
e|------------------------------------------------------| 
B|------------------------------------------------------| 
G|--77777777--------------77777777----------------------| 
D|--55555555--7777--5555--77777777--7777--55555555555---| 
A|--55555555--7777--5555--55555555--7777--55555555555---| 
E|------------5555--3333------------5555--33333333333---| 
bahala na po kayo sa strumming.. 
 
my time and my.. 
 
Guitar 1 
e|------------------11111111------------------11111111111---| 
B|--33333333--2222--11111111--33333333--2222--11111111111---| 
G|--22222222--2222--00000000--22222222--2222--00000000000---| 
D|------------2222--00000000------------2222--00000000000---| 
A|------------------22222222------------------22222222222---| 
E|------------------33333333------------------33333333333---| 
 
Guitar 2 
e|----------------------------------------------------------| 
B|----------------------------------------------------------| 
G|--77777777------------------77777777----------------------| 
D|--55555555--7777--55555555--77777777--7777--55555555555---| 
A|--55555555--7777--55555555--55555555--7777--55555555555---| 
E|------------5555--33333333------------5555--33333333333---| 
 
eto po ung pagtapos ng yeahehehehehh..(hehe) 
 
Guitar 1 
e|------------------------0--0---0--0----| 
B|--11111---------33333----3--3---3--3---| 
G|--22222---------22222-----2--2---2--2--| 
D|--33333--22222---------0------0------0-| 
A|---------22222-------------------------| 
E|---------------------------------------| 
 
Guitar 2 
e|---------------------------------------| 
B|---------------------------------------| 
G|----------------77777--777777-7s99s11--| 
D|--22222--22222--77777--777777-xsxxsx---| 
A|--22222--22222--55555--555555-5s77s9---| 
E|--11111--------------------------------| 
ok na po yan.. 
 
eto po ung sa adlib.. 
 
Guitar 1 & 2 yata.. 
e|----------------------------------| 
B|----------------------------------| 
G|--7-0000-9-0000-5-0000-11111111---| 
D|--7-0000-9-0000-5-0000-11111111---| 
A|--5-0000-7-0000-3-0000-9-9-9-9----| 
E|----------------------------------| 
      P.M    P.M    P.M 
 
Guitar 1 & 2 yata.. 
e|----------------------| 
B|----------------------| 
G|--7--9--5--11111111---| 
D|--7--9--5--11111111---| 
A|--5--7--3--9-9-9-9----| 
E|----------------------| 
 
Guitar 1 & 2 yata.. 
e|----------------------------------| 
B|----------------------------------| 
G|--7-0000-9-0000-5-0000-11111111---| 
D|--7-0000-9-0000-5-0000-11111111---| 2X 
A|--5-0000-7-0000-3-0000-9-9-9-9----| 
E|----------------------------------| 
      P.M    P.M    P.M 
 
pagkatapos po nyan ay intro uli, tignan nyu na lang dun sa una kong gawa o  
kaya ay sa video ko(hehe) furlan-akasha yan po keyword sa youtube para mas maintindihan nyu pa..  
 
gento po yata ung base ng furlan sa chorus.. 
 
filan da lowv.. 
  
G|------------------10p9--------------------------------------| 
D|----------------------10---9-10s12-7~777s9-9-101010-99-77-5-| 
A|--------------8h10------7~----------------------------------| 
E|------------------------------------------------------------| 
 
G|--------------------------| 
D|-----10-10-10---------12--| 
A|--8-8--8--8--7-8h10-7-----| 
E|--------------------------| 
 
 
siguro mga 53.37% tama pu yang tab, pangalawang tab ku na pu ito.. 
tinggelbear.ph    
orencio- 
 
 

Este fichero es trabajo propio de su transcriptor y representa su interpretación personal de la canción. El material contenido en esta página es para exclusivo uso privado, por lo que se prohibe su reproducción o retransmisión, así como su uso para fines comerciales.