Queen - Sleeping On The Sidewalk (TAB)


                                     QUEEN:  
                          Sleeping on the sidewalk 
                                / May , 1977 / 
 
                 |----------------------------------------------------| 
                 |----------------------------------------------------| 
                 |----------------------------------------------------| 
                 |---------9-7---7--------7---7-----------9-----------| 
                 |-------9-----9---9-7----------9-7----9---9-9--9--x-| 
 one,two,three   |-10-11---------------10-----------10----------------| 
 
|------------------------------------------------------------| 
|------------------------------------------------------------| 
|-------------------9--7b------------------------9--7b8------| 
|----9--7-7-----------9---9-7h9----9--7-7----------9----9-7--| 
|------9---8-------------------------9---97-5-------------9-| 
|-x-x---------10-7-x------------7-7-----------x-x------------| 
 
|-------------------------------------------------------------| 
|-------------------------------------------------------------| 
|----------------------9---7b8--------------------------------| 
|-----9-9p7--7------------9-----9-79-77-7-------9-9-9---9---9-| 
|----------9----7-5---------------------7-5-/9-9-9-9---9----| 
|---7---------------x-x---------------------------------------| 
 
|----------------------------------------------------------------| 
|---10---9---*--x-x--x-10---9---7--------------------------------| 
|----9---9---*--x-x--x--9---9---7--------------------------------| 
|---11---9---*--x-x--x-11---9---7---9----9---7----------9--9-99--| 
|------------------------------------x--9---9---97-5-----99-910-| 
|--------------9---------------------------------------x---------| 
 
|----------------------------------------------------------------| 
|------12---11---------------------------------------------------| 
|-11---11---11---------------------------------------11-11-------| 
|-11----x---11---11-/9-7------------------------9---11-11-------| 
|-9------------------------7-5----------6-7-8-9------8--8---12-| 
|-------------------------------777-777-7------------------------| 
 
|----------------------------------------------------------------| 
|----------------------------------------------------------------| 
|--------------------------------------------------9--7b8--------| 
|----9---7-----------9--7-7---------9---7-7---------------9--p7--| 
|-----------97-56--9------97-xx------9---97-5--9------------9-| 
|-x-7---x----------------------xx--x------------7----------------| 
 
|-----------------------------------------------------| 
|--------------------------------------------7-7-7/7-| 
|--------------------------------------------7-7-7/7-| 
|---(7)9--7-------------9--7-7-----9-7--9-9--7-7-7/7-| 
|---(6)--9---97-5--------9----789--------------------| 
|-x----------------x-(6)------------------------------| 
 
|--------------------------------------------------------------------| 
|-*---9---9---------*---x-10--10-9---7--------------10b12--10b12-b11-| 
|-*---9---9---------*---x--9---9-9---7-------------------------------| 
|-*---9---9-------9-*---x-11--11-9---7-------9-*7--------------------| 
|------------9h11----------------------------------------------------| 
|-----------------------------------------7-7------------------------| 
 
|-------------------------------------------------------------------| 
|-x-x--x-----11h12-11-----------------------------------------------| 
|-x-x--x-11--11h12-11--(9)------------------------------------------| 
|-x-x--x-11--------11---9--7--------------------9(p7--)-------------| 
|----------------------------p7--5------6-7-8-9--(--10)--9-9---8-x--| 
|---------------------------------7-7--7----------------------------| 
 
|----------------------------------------| 
|-x----9----9--9-9---9-9--x-10--x-9--9-9-|riff A
        A        
(1) |-x----9----9--9-9---9-9--x--9--x-9--9-9-| |-x----9----9--9-9---9-9--9--9--x-9--9-9-| |-x----7----7--7-7---7-7--7--7--x-7--7-7-| |----------------------------------------| |----------------|-------------------4---| |-----------4--4-|-4--4------4--4-5--5-x-|riff A
        A        
(2) |-4--4-6--4-4--4-|-4--4------4--4-4----x-| |-4--4-6--4-4--4-|-4--4-6--4-4--4-6----x-| |----------------|-----------------------| |----------------|-----------------------| |--------------------------------------------| |-x-10---x-9---9-x---9-x---x-10---x-9--10-x--|riff A
        A        
(3) |-x--9---x-9---9-x---9-x---x--9---x-9---9-x--| |-x--9---9-9---9-9---9-9---9--9---9-9---9-x--| |----7---7-7---7-7---7-7---7--7---7-7---7----| |--------------------------------------------| |-----------------------------------------------------| |-x-11---11-11---x-11--11-11--x-9---9-9--------9--9---|riff A
        A        
(4) |-x-11---11-11---x-11--11-11--x-9---9-9--------9--7---| |-x-11---11-11---x-11--11-11--x-9---9-9---9/11--------| |-x--9----9--9---x--9---9--9--x-7---7-7---------------| |-----------------------------------------------------| |----------------------------------------------------------| |----------------------------------------------------------| |-------------7--------------------------------------------| |-6--6-7---7--7----------9----7-----------6-6----7---------| |-4--4---------8----(8)-----8(9)-97-5----4---------97-5--| |-6--6----6-------10-7--6---------------x------------------| |------------------------------------------------------------| |------------------------------------------------------------| |-----9----7b8--------------------7-------------------9b-----| |--------9------9-7--------9---7--------------9---7----------| |-x--x--------------h9--x-7---9----97-5---------9-----------| |-----------------------------------------x-x----------------| |----------------------------7-----------------------------------------------| |-------------------10-10b12---10-7---------------*-x--*h10--*-9---*-----9-x-| |-----------------------------------10-9-7-9-9----*-x--*h10--*-9---*-----9-x-| |-9--9-7----9--9-x-----------------------------9--*-x--*h10--*-9---*-7---9-x-| |---------9------------------------------------------------------------------| |----------------------------------------------------------------------------| |------------------------------------------------------| |-x-10---9---7--7--------------------------------------| |-x--9---9---7--7--------------------------------------| |-x-11---9---7--7-----9---7------7h9-----9---9--9------| |----------------------------7h9-----x--x9--x----97-5-| |-----------------x--x---------------x--x--------------| |--------------------------------------------------------------| |-------------12--11-------------------------------------------| |-----11---11-11--11-------------------------------------------| |-----11---11-11--117--/9-7----------------------9p7----------| |-9--9------9--9---9---------7-5----------6-7-8-9---7-7--7----| |--------------------------------7--7-7---x--------------------| |------7-----7------------------7-----7-----7---------------| |--------10b---10b-7--------10b---10b---10b-----------------| |-9b11---------------7b8----------------------7b8----(10r9)-| |-------------------------9-----------------------9---------| |-----------------------------------------------------------| |-----------------------------------------------------------| |-----7-----7-----7-----7-----7-----7-----7-----7-----7-| |-10b---10b---10b---10b---10b---10b---10b---10b---10b---| |-------------------------------------------------------| |-------------------------------------------------------| |-------------------------------------------------------| |-------------------------------------------------------| |--------7----------------------------------------------------| |-10b11-------------------(10)--------------------1010101010--| |----------9b11-7------7b9----7b9-7-----7-----9b11--111111----| |-------------------9----------------9-----9------------------| |-------------------------------------------------------------| |-------------------------------------------------------------| |-----------------------------------------| |----1010101010---1010101010---101010--10-| |-b11----------b11----------b11-----------| |-----------------------------------------| |-----------------------------------------| |-----------------------------------------| |---------------------------------------------------------------------| |-12---12---12--------12---12---12----14b16---12---------12-----------| |----------13----13------------13----------------14b16-------0-14b16--| |---------------------------------------------------------------------| |---------------------------------------------------------------------| |---------------------------------(12)--------------------------------| |---------------------------------------------------------------------| |-12-------------12-----12-----12(p10)---10-10vv----------------------| |------11-14b16-----1111---(11)-------11----------14--11-14b16---14---| |---------------------------------------------------------------------| |---------------------------------------------------------------------| |---------------------------------------------------------------------| |----------------------------------------------------| |-----------------------------------/11--11-11-------| |-----------------------------------/11--11-11-------| |-15r14p10--------------------------/11--11-11-------| |----------14--14---12--------------/9----9--9---8---| |------------------------14---128-------------------| riff A
        A        
|---------------------------------------------------------------------------| |-9b10----------------9b10----------------9b10------------------------------| |-9b11-----9-7--------9b11----9797--------9b11-----9-797------7-7-----7-7---| |-------------9-------------------9---------------------9---777-7---7---7---| |------------------------------------x-x------------------------------------| |-----------------7------------------x-x------------------------------------| |----------------| |----------------| |----7-7---72/--| |----7-7---72/--| |-7h9------------| |----------------| |---------------------------------------------------------------------| |---------------------------------------------------------------------| |----x-9--x-9----7--9---xx8--9--9-7b8---------------------------------| |-9--x-9--x-9--9-7--9---xx9--9-------------9---7-----------9---9--9---| |-7--x-7--x-7-------7---777--7--------------------97--5---------------| |---------------------------------------x-7---7--------7--7---7-------| |--------------------------------------------------------------| |------10--*10--10-9------------------------------------------| |-------9--*-9---9-9----------------------------------x7--8--| |-x---x-9--*-9---9-9---9-7-------------------------9--x7--7--| |-x---x----*-7---7-7-------975--------6---7---8--9-------9--| |-------------------------------7--77--7---0-------------------| ...he-he... * : pause

Este fichero es trabajo propio de su transcriptor y representa su interpretación personal de la canción. El material contenido en esta página es para exclusivo uso privado, por lo que se prohibe su reproducción o retransmisión, así como su uso para fines comerciales.