Qbo - El Juego (TAB)


  [INTRO] 
e|--------------------------------------------------| 
B|--------------------------------------------------| 
G|---1-2---2-----1-2---2-----1-2---2-----1-2-1---2--| 
D|-0-----0---0--------------------------------------| 
A|-------------1-----1---1-------------3-------3----| 
D|-------------------------3-----3---3--------------| 
 
e|----------------------------------------| 
B|----------------------------------------| 
G|-7--1-2--3--1-2---1-2--5-5-5-5-5--------|(x2) 
D|-7-------3------3------5-5-5-5-5--------| 
A|-5-------1------3------3-3-3-3-3--------| 
D|----------------3-----------------------| 
 
  [verso]x2 *=palm muted 
e|----------------------------------------------------| 
B|-************-************--------------************| 
G|-777777777777-333333333333-************-555555555555| 
D|-777777777777-333333333333-333333333333-555555555555| 
A|-555555555555-111111111111-333333333333-333333333333| 
D|---------------------------333333333333-------------| 
   'Quise emprender el viaje'... 
 
  [pre-coro]x4 
e|------------------| 
B|------------------| 
G|------------------| 
D|-1-0--2-1-0-1-1-0-| 
A|-1-0--2-1-0-1-1-0-| 
D|-1-0--2-1-0-1-1-0-| 
 
  [coro]x2 
e|-------------------------------------| 
B|-------------------------------------| 
G|-77777777-33333333----------55555555-| 
D|-77777777-33333333-33333333-55555555-| 
A|-55555555-11111111-33333333-33333333-| 
D|-------------------33333333----------| 
   'Yo solo trato de seguir'... 
  
  [verso]x2 *=palm muted 
e|----------------------------------------------------| 
B|-************-************--------------************| 
G|-777777777777-333333333333-************-555555555555| 
D|-777777777777-333333333333-333333333333-555555555555| 
A|-555555555555-111111111111-333333333333-333333333333| 
D|---------------------------333333333333-------------| 
  'Pienso a cada momento'... 
 
  [pre-coro]x4 
e|------------------| 
B|------------------| 
G|------------------| 
D|-1-0--2-1-0-1-1-0-| 
A|-1-0--2-1-0-1-1-0-| 
D|-1-0--2-1-0-1-1-0-| 
 
  [coro]x2 
e|-------------------------------------| 
B|-------------------------------------| 
G|-77777777-33333333----------55555555-| 
D|-77777777-33333333-33333333-55555555-| 
A|-55555555-11111111-33333333-33333333-| 
D|-------------------33333333----------| 
   'Yo solo trato de seguir'... 
 
  [pre-coro]x8 
e|------------------| 
B|------------------| 
G|------------------| 
D|-1-0--2-1-0-1-1-0-| 
A|-1-0--2-1-0-1-1-0-| 
D|-1-0--2-1-0-1-1-0-| 
 
e|-----------------------------------------| 
B|-----------------------------------------| 
G|-7--1-2--3--1-2-----1-2--5-5-5-5-5-------|(x2) 
D|-7-------3-------3-------5-5-5-5-5-------| 
A|-5-------1-------3-------3-3-3-3-3-------| 
D|-----------------3-----------------------| 
 
  [coro]x2 
e|-------------------------------------| 
B|-------------------------------------| 
G|-77777777-33333333----------55555555-| 
D|-77777777-33333333-33333333-55555555-| 
A|-55555555-11111111-33333333-33333333-| 
D|-------------------33333333----------| 
  'Yo solo trato de seguir'... 
 
  x2 
e|----------------------------------------------| 
B|----------------------------------------------| 
G|---------------------555555---------7777777---| 
D|---------------------555555-5555555-7777777---| 
A|-0-2-0-2-0-2-0-2-0-2-333333-5555555-5777777---| 
D|-0-2-0-2-0-2-0-2-0-2--------5555555-----------| 
   'Es como volver a empezar'

Este fichero es trabajo propio de su transcriptor y representa su interpretación personal de la canción. El material contenido en esta página es para exclusivo uso privado, por lo que se prohibe su reproducción o retransmisión, así como su uso para fines comerciales.