The Wall


We don't need no education
We don't need no thought control
No dark sarcasm in the classroom
Teachers leave them kids alone...
G|---------------------------|
D|---------------------------| (7x)
A|--5-5-3-5----5-5-5-0-3-5---|
E|---------------------------|

G|---------------------------|
D|--5-5-3-5--0-3-5-----------| (3x)
A|---------------------------|
E|---------------------------|
Hey! Teacher! Leave them kids alone!
G|----------------------------------------|
D|--5-5-5-7-5-3-5-------------------------| 
A|----------------5-5-3-5--5-5-5----------|
E|-------------------------------5-3-1----|

All in all it's just another brick in the wall
G|---------------------------------------------|
D|---------------------------------------------| 
A|------------3-3-3-3-3--5-5-3-5--5-5-5--------|
E|--1-1-1-1-1---------------------------5-3-1--|
All in all you're just another brick in the wall
G|----------------------------------------------|
D|----------------------------------------------| 
A|------------3-3-3-3-3--5-5-3-5--5-5-5-0-3-5---|
E|--1-1-1-1-1-----------------------------------|

Pink F
        F        
loyd

Este fichero es trabajo propio de su transcriptor y representa su interpretación personal de la canción. El material contenido en esta página es para exclusivo uso privado, por lo que se prohibe su reproducción o retransmisión, así como su uso para fines comerciales.