Shine On You Crazy Diamond


Solo 1:

E|--13^-13-13^-----------------------------------------------------------|
B|--------------------------11-13-13^-13-13^~------13^-10-13-13^-13-13^~-|
G|-----------------12-12----------------------------12-------------------|
D|-----------------------------------------------------------------------|
A|-----------------------------------------------------------------------|
E|-----------------------------------------------------------------------|


E|---------------------------------------------------------------|
B|----10h-11p-10------10-----------------------------10^---------|
G|----------------------------------12-----10-10-----10~/0-12^---|
D|-------------------------------------------------------12------|
A|---------------------------------------------------------------|
E|---------------------------------------------------------------|


E|---------------------------------

Este fichero es trabajo propio de su transcriptor y representa su interpretación personal de la canción. El material contenido en esta página es para exclusivo uso privado, por lo que se prohibe su reproducción o retransmisión, así como su uso para fines comerciales.