Total Immortal


Intro:


e|-------------------------------------------|
B|-------------------------------------------|
G|---99x--77---99x---77---99x---77-----99999-|
D|-2x99x5x77-2x99x5xx77-2x99x5x-77-5-7-99999-|
A|-2x77x5x55-2x77x5xx55-2x77x5x-55-5-7-77777-|
E|-0x---3x---0x---3xx---0x---3x----3-5-------|


Verso:


e|-----------|555-777---555---|--|----------------|
B|-----------|-------888---7-8|--|----------------|
G|-----------|----------------|3x|--------------10|
D|7-8-5555xxx|----------------|--|--------------10|
A|7-8-5555xxx|----------------|--|9999999999999--8|
E|5-6-3333xxx|----------------|--|7777777777777---|


e|--------------------------------------------|
B|--------------------------------------------|
G|---------------------------------99999999---|
D|-9999999999999999999999999999999999999999---|
A|-7777777777777777777777777777777777777777---|
E|--------------------------------------------|


Refrϣo:


e|------------------------------------------------|
B|------------------------------------------------|
G|----------------77777777-999-7779-12121212121212|
D|222222225555555577777777-999-7779-12121212121212|
A|222222225555555555555555-777-5557-10101010101010|
E|0000000033333333--------------------------------|


e|-----------------------------------------------|
B|-----------------------------------------------|
G|----------------77777777-999111111121212-141414|
D|222222225555555577777777-999111111121212-141414|
A|222222225555555555555555-777-9-9-9101010-121212|
E|0000000033333333-------------------------------|


Bridge:


e|-------------------------------------|
B|-------------------------------------|
G|-9-9999-9-9977-9-999-9-999109--------|
D|-9-9999-9-9977-9-999-9-999109--------|
A|-7-7777-7-7755-7-777-7-7778-7--------|
E|-------------------------------------|


The Offspring
(Guitar chords, ukelele, keyboard, tabs, bass, drums and lyrics)

Este fichero es trabajo propio de su transcriptor y representa su interpretación personal de la canción. El material contenido en esta página es para exclusivo uso privado, por lo que se prohibe su reproducción o retransmisión, así como su uso para fines comerciales.