Aparador (TAB) (2)


Saludos a la banda MOTEL, en especial a G
        G        
loria A
        A        
nele y A
        A        
lma Lucero desde puebla capital. En este caso la guitarra en el intro minuto 0:00 y 1:39 empieza con bemol (D#
       D#       
 o Db
       Db       
) en la sexta osea un medio tono atras de E
        E        
o mi solo en la sexta cuerda. 0:00 e |------------------------------------|  B
        B        
|------------------------------------| G1  G
        G        
|------------------------------------| x4  D
        D        
|------------------------------------|  A
        A        
|------------------------------------| D#
       D#       
 |-4444444444-777777-1111111-2222-77--|
0:07_______________________________________0:30 e |---------------------------|  B
        B        
|---------------------------| G2 G
        G        
|---------------------------| x2  D
        D        
|-55-55-55-88-22-22-22--88-5|  A
        A        
|---------------------------|  E
        E        
|---------------------------| e |-----------------------------|  B
        B        
|-----------------------------| G2 G
        G        
|-----------------------------|  D
        D        
|-55-55-55-88-22-22-22-888-5~-|  A
        A        
|-----------------------------|  E
        E        
|-----------------------------| 0:42 e |-----------------------------|  B
        B        
|-----------------------------| G2 G
        G        
|-----------------------------|  D
        D        
|-55-55-55-88-22-22-22-888-5~-|  A
        A        
|-----------------------------|  E
        E        
|-----------------------------| 0:56 e |----------------------------|  B
        B        
|----------------------------| G2 G
        G        
|----------------------------|  D
        D        
|-5s88s2vs8s5-s8s10----------|  A
        A        
|----------------------------|  E
        E        
|----------------------------| 1:04 1:07  E
        E        
|---|  E
        E        
|---|  B
        B        
|---|  B
        B        
|---|  G
        G        
|-5-|C5  G
        G        
|-8-|D#5  D
        D        
|-5-|  D
        D        
|-8-|  A
        A        
|-3-|  A
        A        
|-6-|  E
        E        
|---|  E
        E        
|---|  C
        C        
5 que estoy contigo hasta la muerte y más  D#
       D#       
5 hasta alcansarte C5  D#
       D#       
5 caigo en un momento y siento que no puedo hablar 1:19 e |----------------------|  B
        B        
|-8v8v10v1011v-11v-11v-|  G
        G        
|----------------------|  D
        D        
|----------------------|  A
        A        
|----------------------|  E
        E        
|----------------------|  C
        C        
5 y en el reflejo de tu cuerpo me pierdo y solo quiero llegar hasta tu centro  D#
       D#       
5 y verte adentro una vez mas  C
        C        
5 para decirte que tu amor es un juego y ya lo quiero jugar 1:39 e |------------------------------------|  B
        B        
|------------------------------------| G1 G
        G        
|------------------------------------| x4  D
        D        
|------------------------------------|  A
        A        
|------------------------------------| D#
       D#       
 |-4444444444-777777-1111111-2222-77--|
1:46 e |---------------------------|  B
        B        
|---------------------------|  G
        G        
|---------------------------|  D
        D        
|-55-55-55-88-22-22-22-8-5~-|  A
        A        
|---------------------------|  E
        E        
|---------------------------| 1:55 e |---------|  B
        B        
|---------|  G
        G        
|---------|  D
        D        
|-5s2s5s8-|  A
        A        
|---------|  E
        E        
|---------| e |---------------------------|  B
        B        
|---------------------------|  G
        G        
|---------------------------|  D
        D        
|-55-55-55-88-22-22-22-8-5~-|  A
        A        
|---------------------------|  E
        E        
|---------------------------| 2:43 e |------11-10-------|  B
        B        
|-8-10--------11-8-|  G
        G        
|------------------|  D
        D        
|------------------|  A
        A        
|------------------|  E
        E        
|------------------| e |------11-10--13-9-|  B
        B        
|-8-10-------------|  G
        G        
|------------------|  D
        D        
|------------------|  A
        A        
|------------------|  E
        E        
|------------------| e |------11-10-----13-11-10-8-|  B
        B        
|-8-10-------11-------------|  G
        G        
|---------------------------|  D
        D        
|---------------------------|  A
        A        
|---------------------------|  E
        E        
|---------------------------| e |------11-10-------|  B
        B        
|-8-10--------11-8-|  G
        G        
|------------------|  D
        D        
|------------------|  A
        A        
|------------------|  E
        E        
|------------------| e |------11-10-------8-|  B
        B        
|-8-10--------11-----|  G
        G        
|--------------------|  D
        D        
|--------------------|  A
        A        
|--------------------|  E
        E        
|--------------------| 3:28 e |-------------------------|  B
        B        
|-------------------------| G1 G
        G        
|-10-12-10-12-10-12-10-12-| x4  D
        D        
|-------------------------|  A
        A        
|-------------------------|  E
        E        
|-------------------------| e |-13-15-13-15-13-15-13-15v-|  B
        B        
|--------------------------| G1 G
        G        
|--------------------------| x3  D
        D        
|--------------------------|  A
        A        
|--------------------------|  E
        E        
|--------------------------| Algun comentario mark_admon_xhotmail.es

Motel

Este fichero es trabajo propio de su transcriptor y representa su interpretación personal de la canción. El material contenido en esta página es para exclusivo uso privado, por lo que se prohibe su reproducción o retransmisión, así como su uso para fines comerciales.