Quien te cantará (BAJ) (4)


E------3-33-1-11-3-33------1-11-1-11------0
A-0-00----------------3-33-----------1-11--
D------------------------------------------
G------------------------------------------

E------3-33-1-11-3-33------2-1-11-1-11------0
A-0-00----------------1-11-------------1-11--
D--------------------------------------------
G--------------------------------------------

Coro
E-0---33-1-1-0--0---33-1-1-0--0------
A---00------------00-----------------
D--------------------------------0-00
G------------------------------------   (X2)

E-3-33------3-33-1-11-0-00-0-00---33-1
A------3-33---------------------00----
D-------------------------------------
G-------------------------------------

E-0-00-0-00-----------3-33-3-33-1-11-----
A-----------3-33---------------------2-22
D----------------0-00--------------------
G----------------------------------------

E-0-00-0-00-----------3-33-4-3-33-1-11-----
A-----------3-33---------------------2-22--
D----------------0-00----------------------
G------------------------------------------

Coro
E-2-22-00------------------00-----------------
A-----------3-33-2-22-2-22------3-33-2-22-1-11
D--------00------------------00---------------
G---------------------------------------------

E------3-33--------------------------33-1
A----------------3-33-2-22-0-00----00----
D-0-00------0-00------------------------- como 5 veces +
G----------------------------------------

Mocedades

Este fichero es trabajo propio de su transcriptor y representa su interpretación personal de la canción. El material contenido en esta página es para exclusivo uso privado, por lo que se prohibe su reproducción o retransmisión, así como su uso para fines comerciales.