Sólo a tí (TAB) (2)


intro:

E------------------------------------------
B---9s11-7-9--------9s11--7-9-----7--------
G-8----------7s8--8-----------7h8----8-6---
D----------------------------------------9-
A------------------------------------------
E------------------------------------------

riffs :
                                                ( riff 1 )
No existen mas motivos señor venimos hoy rendidos a ti

E--------
B-4h5h4v-
G--------
                                         ( riff 2 )
la unica razon de nuestra adoracion hoy eres tu

E----------
B-7-7h6----
G-------5s6
                        ( riff 3 )
elevamos olor fragante para ti  para ti

E-------------
B-------------
G-----6-4-----
D-4h6-----4s6-

primer solo:

E------------------------------------------
B---9s11-7-9--------9s11--7-9-----7--------
G-8----------7s8--8-----------7h8----8-6---
D----------------------------------------9-
A------------------------------------------
E------------------------------------------

E----------------------------------------------
B---9s11-7-9--------9s11-12-14-14s16--16s12-12-
G-8----------7s8--8----------------------------
D----------------------------------------------
A----------------------------------------------
E----------------------------------------------

solo final:

E----------------------------------------
B----------------------------------------
G---8-8-6-4-6-4v---4v--------------------
D----------------6----6-4-6-4---4--------
A-9---------------------------6---6-4-6--
E----------------------------------------

E--------------------4---6-----7-----------------
B------------------------------------------------
G------------------------------------------------
D-6h7h6-4-6-4---------------------------6h7h6v---
A-------------6-4-------------------7-9----------
E----------------------------------------------7-

cualquier pregunta mandenme un mensaje con gusto los atiendo
marvin.martinezcastro

Marcela G
        G        
andara

Este fichero es trabajo propio de su transcriptor y representa su interpretación personal de la canción. El material contenido en esta página es para exclusivo uso privado, por lo que se prohibe su reproducción o retransmisión, así como su uso para fines comerciales.