Es una aventura (BAJ) (4)


hola aqui les dejo la tabs para el bajo de esta buenisima cancion
espero les guste.



 inicia teclado.

 el bajo entra con la intro de la guitarra

e-4----------1-------4---
a-----6--6-------3-------
d------------------------
g------------------------

estrofa
1
es una aventura conocerte caminar y obedecerte  y vivir por ti
2

e------3--3--1---
a-6--6---------1-
d----------------
g----------------

pre coro

e-3-------6--4--
a----3--3-------
d---------------
g---------------

coro

e-----------3--3-3--3-4--4-4--4--4-4-
a-6--6-6--6--------------------------
d------------------------------------
g------------------------------------

e-----------3--3-3-3---6-6--4--4-4--1-
a-6--6-6--6----------3----------------
d-------------------------------------
g-------------------------------------

intermedio

e-4-------------
a--------6------
d---------------
g---------------

verso

1

e------3----1------
a-6--6-------------
d--------------1--1
g------------------

2

e------3--3--1---
a-6--6---------1-
d----------------
g----------------

precoro

e-3-------6--4-
a-----3--3------
d---------------
g---------------

coro

e-----------3--3-3--3-4--4-4--4--4-4-
a-6--6-6--6--------------------------
d------------------------------------
g------------------------------------

e-----------3--3-3----6-6--4--4-4--1-
a-6--6-6--6---------3----------------
d------------------------------------
g------------------------------------

solo

en el solo de guitarra el bajo hace asi

e---8--8-8--8--4--4-4-4--8--8-8--8--4--4-4-4----
a--6--------------------6-----------------------
d-----------------------------------------------
g-----------------------------------------------

e-1-1-1--1-1--1-----------4--4-4-
a---------------3--3-3--3--------
d--------------------------------
g--------------------------------

e------------------4-6------4------
a-6-8-------6----------4/6-4-------
d-----6/8-6------------------------
g----------------------------------

coro

e-----------3--3-3--3-4--4-4--4--4-4-
a-6--6-6--6--------------------------
d------------------------------------
g------------------------------------

e-----------3--3-3-3---6-6--4--4-4-4-
a-6--6-6--6---------3----------------
d------------------------------------
g------------------------------------

e-8--6-6--4--4-4--8-8--6-6--4-4--4-4-------
a-------------------------------------11---
d------------------------------------------
g------------------------------------------

e--11--
a------
d------
g------

bueno esto es todo. mi nombre es Nelson E
        E        
ngelhard cualquier cosa escribanme albertbajo9

Marcela G
        G        
andara

Este fichero es trabajo propio de su transcriptor y representa su interpretación personal de la canción. El material contenido en esta página es para exclusivo uso privado, por lo que se prohibe su reproducción o retransmisión, así como su uso para fines comerciales.