Alabanzas al rey (TAB) (4)


Acá les dejo la intro de esta canción que esta bien linda y que me ha
tocado trabajar gracias a una hermana de la iglesia que la quiere
cantar este diciembre :-)

E-|---------|---------|-------------------|
B-|-----3-4-|-----4-3-|-----4-3-----------|
G-|-3s5-----|-3s5-----|-3h5-----5-3-----3-|
D-|---------|---------|-------------6-5---|
A-|---------|---------|-------------------|
E-|---------|---------|-------------------|

E-|-------3-|---------|---------------------------------|
B-|-3s4-6---|-3s4-6-3-|-4-3---3-4-4s6-4-----------------|
G-|---------|---------|-----5-----------3-5-----5s3-----|
E-|---------|---------|-----------------------------3-5-|
A-|---------|---------|---------------------------------|
E-|---------|---------|---------------------------------|

Imagino que ya deben conocer la nomenclatura pero por si las moscas:

s = slide
h = hamer

Espero les guste.
No pongo la cancion completa porque a la hora que estoy escribiendo
ya me esta pegando el sueño y apenas estoy empezando a sacar los
fraseos...

Dios les bendiga!!

Marcela G
        G        
andara

Este fichero es trabajo propio de su transcriptor y representa su interpretación personal de la canción. El material contenido en esta página es para exclusivo uso privado, por lo que se prohibe su reproducción o retransmisión, así como su uso para fines comerciales.