Ni Para Rogar Un Beso (TAB) (2)


Bueno ese es el intro nada dificil xseak solo es cuestion de practicarlo un rato y nada mas 
 
 
Intro: 
 
e-------------------------------------------------------------------------------------- 
B-------------------------------------------------------------------------------------- 
G----10-9------------------------------------------------------------------------------ 
D-----------9-10-12-10-9h10h9--7--6-7--9h10h9--7--6h7h6-------------------------------- 
A---------------------------------------------------------8--7--5--7h8h7--5------------ 
E----------------------------------------------------------------------------8--7--5--- 
 
 
e----------------------------------------------------------------------------------------- 
B----------------------------------------------------------------------------------------- 
G--------------------------------------------7--------------7--9--9h10h9--7-9----9-10----- 
D-------------------6--7--9/10--9--7--9--10-----10-9-7-9-10------------------------------- 
A---------5--7--8------------------------------------------------------------------------- 
E---7--8---------------------------------------------------------------------------------- 
 
 
e----------------------------------------------------------------------------------------- 
B---9-10---12---9h10h12--10--9-10-12--12h13h12--10--9h10h9--12-9h10h9--------------------- 
G----------------------------------------------------------------------10--9--7--10------- 
D----------------------------------------------------------------------------------------- 
A----------------------------------------------------------------------------------------- 
E----------------------------------------------------------------------------------------- 
 
 
e---------------------------------------------- 
B---------------------------------------------- 
G--9--7-----7h9h7------------------------------ 
D--------10-------10-9-7----------------------- 
A---------------------------------------------- 
E---------------------------------------------- 
 
 
 
 
 
Final: 
 
 
e-------------------------------------------------------------------------------------- 
B--6-5-6-5-6-6-5-5h6h5---5------------------------------------------------------------- 
G----------------------7---7--5--5h7-5/4----------------------------------------------- 
D----------------------------------------7-6-7-6--------------6-7--9/10-9--7-9-10------ 
A-------------------------------------------------8-7--5h7-8--------------------------- 
E-------------------------------------------------------------------------------------- 
 
 
e----------------------------------------------------------------------------------- 
B-----------------------9-10-12-10-9-10-12-10-9-10-10/12-12b-10-9--9h10-9----------- 
G---7--7h9h10--9-7-7/9---------------------------------------------------10-9------- 
D----------------------------------------------------------------------------------- 
A----------------------------------------------------------------------------------- 
E----------------------------------------------------------------------------------- 
 
 
e---13-13-13-12-12-12-13-13-13-12--8h10h12--10--8-----8-------------------- 
B--------------------------------------------------12---12-10-9-10---9-10-- 
G-------------------------------------------------------------------------- 
D-------------------------------------------------------------------------- 
A-------------------------------------------------------------------------- 
E--------------------------------------------------------------------------

Mar de C
        C        
opas

Este fichero es trabajo propio de su transcriptor y representa su interpretación personal de la canción. El material contenido en esta página es para exclusivo uso privado, por lo que se prohibe su reproducción o retransmisión, así como su uso para fines comerciales.



Buscar canción en YouTube Buscar cover en YouTube


Más canciones