Balada de un encuentro Fugaz (BAJ) (4)


Intro:
G-------------------------------------|
D-------------------------------------|
A---------4-4-4-4---------------------|
E-6-6-4-4---------6-6-4-4-2-2/14-14/4-|

G---------------------------------|
D---------------------------------|
A---------4-4-4-4---------4-4-4-4-|
E-6-6-4-4---------6-6-4-4---------|

Verso 1:
G-----------------------------------|
D-----------------------------------|
A-------------4-4-------------------| x2
E-6-6-4-4-2-2-----6-6-4-4-2-2-2-2-4-|

Pre-coro:
G------------|
D------------|
A------------|
E-6-6-4-4-22-|

Coro:
G---------------------------------------------|
D---------------------------------------------|
A-643--------643--------643--------643--------|
E----6-6-6-6----2-2-2-2----6-6-6-6----4-4-4-4-|

G---------------------------------|
D---------------------------------|
A-4-4-4-4-----------------4-4-4-4-|
E---------2-2-2-2-4-4-4-4---------|

Solo:
G---------------------------------------------------|
D---------------------------------------------------|
A-643--------643--------643---------4-4-4-4-4-4-4-4-|
E----6-6-6-6----2-2-2-2-----4-4-4-4-----------------|

Pre-verso:
G-------------------------------------------------------------|
D-------------------------------------------------------------|
A---------4-4---------4-4-------------4-4-------------4-4-4-4-|
E-2-2-4-4-----2-2-4-4-----2-2-4-4-4-4-----2-2-4-4-4-4---------|

Verso 2:
G-----------------------------------|
D-----------------------------------|
A-------------4-4-------------------|
E-6-6-4-4-2-2-----6-6-4-4-2-2-2-2-4-|

G-------------------------------------------|
D-------------------------------------------|
A-------------4-4---------------------------|
E-6-6-4-4-2-2-----6-6-4-4-2-2-2-2-2-2-2-2-4-|

Pre-coro:
G------------|
D------------|
A------------|
E-6-6-4-4-22-|

Coro:
G---------------------------------------------|
D---------------------------------------------|
A-643--------643--------643--------643--------|
E----6-6-6-6----2-2-2-2----6-6-6-6----4-4-4-4-|

G---------------------------------|
D---------------------------------|
A-4-4-4-4-----------------4-4-4-4-|
E---------2-2-2-2-4-4-4-4---------|

Final:
G-------------------------|
D-------------------------|
A-------------------------|
E-4-4-4-4-2-2-2-2-4-4-4-4-|

G------------------------|
D------------------------|
A---------4-4---------4~-|
E-6-6-4-4-----6-6-4-4----|

Mar de C
        C        
opas

Este fichero es trabajo propio de su transcriptor y representa su interpretación personal de la canción. El material contenido en esta página es para exclusivo uso privado, por lo que se prohibe su reproducción o retransmisión, así como su uso para fines comerciales.



Buscar canción en YouTube Buscar cover en YouTube


Más canciones