4 Minutes



-----------------------------------------------
-----------------------------------------------
-----------------------------------------------
-----------------------------------------------
---3-----5----6~~----5~~----3~~----------------
-----------------------------------3~~--------- (x4)


------------------------------------------------------------------
------------------------------------------------------------------
----------------3--2--3/2--0-------------------------7--5--7/5--3-
--------3--5------------------------------------------------------
-----5----------------------------5-3--5/3--0---------------------
--3-----------3---------------3-----------------3-----------------


Madonna
(Guitar chords, ukelele, keyboard, tabs, bass, drums and lyrics)

Este fichero es trabajo propio de su transcriptor y representa su interpretación personal de la canción. El material contenido en esta página es para exclusivo uso privado, por lo que se prohibe su reproducción o retransmisión, así como su uso para fines comerciales.