Viejo (TAB)


Hola q tal me llamo rudy, bueno esta canción va dedicada para mi padre,
bueno les aconsejo q primero ya la hayan escuchado para q se les haga fácil
el aprender de esta canción bueno sin más q decir hay les va:

1 ||---8------8------7-------------------------
2 ||-----10-----10-----9--10-------10------8---
3 ||--------9------9---------10------10------9-
4 ||----------------------------10------10-----
5 ||-------------------------------------------
6 ||-------------------------------------------

1 ||----------------------------
2 ||---9-10-12-12-10-12-13-10---
3 ||----------------------------
4 ||----------------------------
5 ||----------------------------
6 ||----------------------------

1 ||----------------------------
2 ||---9-10-12-12-10-12-13-10---
3 ||----------------------------
4 ||----------------------------
5 ||----------------------------
6 ||----------------------------

1 ||---8------8------7-------------------------
2 ||-----10-----10-----9--10-------10------8---
3 ||--------9------9---------10------10------9-
4 ||----------------------------10------10-----
5 ||-------------------------------------------
6 ||-------------------------------------------

1 ||----------------------------
2 ||---9-10-12-12-10-12-13-10---
3 ||----------------------------
4 ||----------------------------
5 ||----------------------------
6 ||----------------------------

1 ||---10-12-13-13-12-10-15-12--
2 ||----------------------------
3 ||----------------------------
4 ||----------------------------
5 ||----------------------------
6 ||----------------------------

1 ||---------------10-10--------
2 ||---12-12-12-12-------13-10--
3 ||----------------------------
4 ||----------------------------
5 ||----------------------------
6 ||----------------------------

1 ||---10-10-10-10-15-15-12-----
2 ||------------------------13--
3 ||----------------------------
4 ||----------------------------
5 ||----------------------------
6 ||----------------------------

1 ||---------------10-10--------
2 ||---12-12-12-12-------13-10--
3 ||----------------------------
4 ||----------------------------
5 ||----------------------------
6 ||----------------------------

1 ||---12-10-12-10-12-10-12-----
2 ||------------------------13--
3 ||----------------------------
4 ||----------------------------
5 ||----------------------------
6 ||----------------------------

1 ||---12-10-12-10-12-10-12-----
2 ||------------------------13--
3 ||----------------------------
4 ||----------------------------
5 ||----------------------------
6 ||----------------------------

Bueno eso es todo por ahora,
cualquier duda a mi correo q es rudy_1489

Lucho B
        B        
arrios

Este fichero es trabajo propio de su transcriptor y representa su interpretación personal de la canción. El material contenido en esta página es para exclusivo uso privado, por lo que se prohibe su reproducción o retransmisión, así como su uso para fines comerciales.



Buscar canción en YouTube Buscar cover en YouTube


Más canciones