Lonely (BAJ) (3)


Hola que talk soy Luis Salas este cifrado fue echo por mi
profesorAlejandro Ventura Un buen musico y en su nombre lo
 publico.

aderanalina10_18: aahi les va...

VERSO:1

       Quiero   reírme
E|-----------|-----—--------|------------|
A|-44----4-4-|--------------|--4--2---00-|
D|--------—--|-1---22--2--2-|------------|
G|-----------|--------------|------------|

 Por fuera estoy mal
E|---------------00-|--4-------4-----|
A|--0--0---0--------|------2---------|
D|------------------|----------------|
G|------------------|----------------|

      Un poco   sexy
E|-----------|-----—-------|------------|
A|-44----4-4-|-------------|--4--2---00-|
D|--------—--|-1--22--2--2-|------------|
G|-----------|-------------|------------|

 Por  dentro  simple
E|---------------00-|--0--0------------|
A|--0--0---0--------|------------------|
D|------------------|------------------|
G|------------------|------------------|


Riff:1

E|-4--4-------|--—----------|------------|------------|
A|-------2--4-|-0--0---2--4-|-4--4—------|-4—-4-------|
D|------------|-------------|-------2--4-|-------2--4-|
G|------------|-------------|------------|------------|

E|-4--4-------|--—----------|---00---|---------------4---------------|
A|-------2--4-|-0--0---2--4-|--------|--------44—2-0---0-2-44--------|
D|------------|-------------|--------|-2-2-2-------------------2-2-2-|
G|------------|-------------|--------|-------------------------------|


Verso:2

       Voy a   rendirme
E|-----------|-----—--------|------------|
A|-44----4-4-|--------------|--4--2---00-|
D|-----------|-1---22--2--2-|------------|
G|-----------|--------------|------------|

 Hoy no puedo hacer más
E|----------------—-00-|--4-------4-----|
A|--0--0------0--------|------2---------|
D|---------------------|----------------|
G|---------------------|----------------|

  Me siento    feeling
E|-----------|-----—--------|------------|
A|-44----4—4-|--------------|--4--2---00-|
D|-----------|-1---22--2--2-|-----------|
G|-----------|--------------|------------|



 Me siento lonely
E|---------------00-|--0--0----------|
A|--0--0---0--------|----------------|
D|------------------|----------------|
G|------------------|----------------|

Riff:2

 Me siento lonely    lonely        lonely
E|-4--4-------|--—----------|------------|------------|
A|-------2--4-|-0--0---2--4-|-4--4—------|-4—-4-------|
D|------------|-------------|-------2--4-|-------2--4-|
G|------------|-------------|------------|------------|
 (Repita 2 veces mas y luego...)

Me siento lonely  lonely      lonely
E|-4--4-------|--—----------|---00---|---------------4---------------|
A|-------2--4-|-0--0---2--4-|--------|--------44—2-0---0-2-44--------|
D|------------|-------------|--------|-2-2-2-------------------2-2-2-|
G|------------|-------------|--------|-------------------------------|


VERSO:3

     B
        B        
usque la forma E|-----------|-----—--------|------------| A|-44----4-4-|--------------|--4--2---00-| D|-----------|-1---22--2--2-|------------| G|-----------|--------------|------------|  D
        D        
e no sentirme E|----------------—-00-|--4-------4-----| A|--0--0------0--------|------2---------| D|---------------------|----------------| G|---------------------|----------------| Tan vulnera E|-----------|-----—--------|------------| A|-44----4-4-|--------------|--4--2---00-| D|-----------|-1---22--2--2-|------------| G|-----------|--------------|------------| Tan desechable E|---------------00-|--0--0----------| A|--0--0---0--------|----------------| D|------------------|----------------| G|------------------|----------------| Riff:2 Me siento lonely lonely lonely E|-4--4-------|--—----------|------------|------------| A|-------2--4-|-0--0---2--4-|-4--4—------|-4—-4-------| D|------------|-------------|-------2--4-|-------2--4-| G|------------|-------------|------------|------------| (Repita 2 veces mas y luego...) Me siento lonely lonely lonely E|-4--4-------|--—----------|---00---|---------------4---------------| A|-------2--4-|-0--0---2--4-|--------|--------44—2-0---0-2-44--------| D|------------|-------------|--------|-2-2-2-------------------2-2-2-| G|------------|-------------|--------|-------------------------------| (Esta parte es lento) Solo quitar: (al compás de los versos 1, 2, 3). E|-----------|-----—--------|------------| A|-44----4-4-|--------------|--4--2---00-| D|-----------|-1---22--2--2-|------------| G|-----------|--------------|------------| E|----------------—-00-|--4-------4-----| A|--0--0------0--------|------2---------| D|---------------------|----------------| G|---------------------|----------------| E|-----------|-----—--------|------------| A|-44----4-4-|--------------|--4--2---00-| D|-----------|-1---22--2--2-|------------| G|-----------|--------------|------------| E|---------------00-|--0--0----------| A|--0--0---0--------|----------------| D|------------------|----------------| G|------------------|----------------| Riff:2 Me siento lonely lonely lonely E|-4--4-------|--—----------|------------|------------| A|-------2--4-|-0--0---2--4-|-4--4—------|-4—-4-------| D|------------|-------------|-------2--4-|-------2--4-| G|------------|-------------|------------|------------| (Repita 2 veces mas y luego...) Me siento lonely lonely lonely E|-4--4-------|--—----------|---00---| A|-------2--4-|-0--0---2--4-|--------| D|------------|-------------|--------| G|------------|-------------|--------| Estribillo: Lonely Lonely E|---------------|--—------4---|------------|--------4---| A|-22------------|-4--2--------|-22-------—-|-4--2---—---| D|-------22------|-------------|------22----|------------| G|--—------------|-------------|------------|------------| Na na na na na na na na na na na na na E|-----------------------------|--—--------------| A|-----------------------------|--2--2--2--2--2--| D|-7-7-----6-6-----4-4----2-2--|-----------------| G|-----------------------------|-----------------| Lonely Lonely E|---------------|------------|--------4---| A|---------------|-22-------—-|-4--2---—---| D|--1--4--1------|------22----|------------| G|--—------------|------------|------------| Na na na na na na na na na na na na na E|-----------------------------|--—--------------| A|-----------------------------|--2--2--2--2--2--| D|-7-7-----6-6-----4-4----2-2--|-----------------| G|-----------------------------|-----------------| Riff:3 Sí... no... Respondessssssss... E|-4--4----------|--—----------|------------|------------| A|-------2--4----|-0--0---2--4-|-4--4-------|-4-4--------| D|---------------|-------------|-------2--4-|-------2--4-| G|---------------|-------------|------------|------------|  A
        A        
lllllgooo... esta Mallllllllll... E|-4--4----------|--—----------|------------|------------| A|-------2--4----|-0--0---2--4-|-4--4-------|-4-4--------| D|---------------|-------------|-------2--4-|-------2--4-| G|---------------|-------------|------------|------------| (Repita una vez más) Riff:2 Me siento lonely lonely lonely E|-4--4-------|--—----------|------------|------------| A|-------2--4-|-0--0---2--4-|-4--4—------|-4—-4-------| D|------------|-------------|-------2--4-|-------2--4-| G|------------|-------------|------------|------------| (Repita 2 veces mas y luego...) Me siento lonely lonely lonely E|-4--4-------|--—----------|---00---| A|-------2--4-|-0--0---2--4-|--------| D|------------|-------------|--------| G|------------|-------------|--------| Final:(parada al seco). E|---0-.0-------|--2--.2----2-.2-|---0---| A|--------------|----------------|-------| D|--------------|----------------|-------| G|--------------|----------------|-------| Notas: Las notas q esta juntas (ósea los números) (44, 22) equivale un solo tiempo mejor dicho toque y haga una pausa (q’equivalga a que estuviera tocando una vez mas). El punto (.) q aparece adelante del numero el la parte final de la canción son paradas al seco mejor dicho toque y para que vuelva a tocar. (Escuche varias veces para q le salga exacto).

Líbido

Este fichero es trabajo propio de su transcriptor y representa su interpretación personal de la canción. El material contenido en esta página es para exclusivo uso privado, por lo que se prohibe su reproducción o retransmisión, así como su uso para fines comerciales.