Laberinto (TAB) (4)


Hola mi Nombre es C
        C        
arlos Manuel :3 Haré unos arreglos, los correctos, espero que les guste, y ya saqué todo menos el Solo /: es algo complicado, pero les gustara de Igual manera! :3 Intro: e--7-------------  B
        B        
--5-------------
 G
        G        
--0-------------
 D
        D        
--6-------------
 A
        A        
--7-------------
 E
        E        
--x-------------
bajo:  G
        G        
------------------------
 D
        D        
---------------7b9~~--
 A
        A        
--7--10---7-10----------
 E
        E        
------------------------
1° G
        G        
uitarra [- e-----5-----5-----5-----5-----5---5-------- |  B
        B        
-------3-----3-----3-----3-----3---------- |
 G
        G        
---0-----0-----0-----0-----0-------------- |
 D
        D        
------------------------------------------ |
 A
        A        
------------------------------------------ |
 E
        E        
------------------------------------------ |
| | se arpegia e-----7-----7-----7-----6-----6-----6------ | de esa manera  B
        B        
-------5-----5-----------4-----4---------- |
 G
        G        
---0-----0-----0-----0-----0-----0-------- |
 D
        D        
------------------------------------------ |
 A
        A        
------------------------------------------ |
 E
        E        
------------------------------------------ |
[- en el A
        A        
rpegio, Salim empieza a cantar: Sometido al laberinto Estoy perdido Mil colores, mil segundos He oído Artificios venenosos He sentido  E
        E        
5  D
        D        
5  E
        E        
5  D
        D        
5/A5/D5  C
        C        
5 inyectando en mi mente, mentiras, mentiraaas  E
        E        
5  D
        D        
5  E
        E        
--------------------------------
 B
        B        
--------------------------------
 G
        G        
-----9-9-9-9-----7-7-7-7--------
 D
        D        
-----9-9-9-9-----7-7-7-7--------
 A
        A        
-----7-7-7-7-----5-5-5-5--------
 E
        E        
--------------------------------
 E
        E        
5  E
        E        
5  D
        D        
5  A
        A        
5  D
        D        
5  C
        C        
5 e----------------------------------------------  B
        B        
----------------------------------------------
 G
        G        
-------9---7-------7----5~~-------------------
 D
        D        
----2--9---7---7---7----5~~-------------------
 A
        A        
----2--7---5---7---5----3~~-------------------
 E
        E        
----0----------5------------------------------
 E
        E        
5/E5  D
        D        
5/A5/D5  C
        C        
5 Y sólo espero palpitar  E
        E        
5/E5  D
        D        
5/A5/D5  C
        C        
5 Dejar mi alma en mi ser  E
        E        
5/E5  D
        D        
5/A5/D5  C
        C        
5 Ya no logro respirar Ya no entiendo que es mi piel  G
        G        
 A
        A        
 C
        C        
Em
       Em       
  e------3------5------8------0----------  B
        B        
------3------5------8------0----------
 G
        G        
------4------6------9------0----------
 D
        D        
------5------7------10-----2----------
 A
        A        
------5------7------10-----2----------
 E
        E        
------3------5------8------0----------
G
        G        
   A
        A        
 C
        C        
Em
       Em       
  Hay algo en tu forma sensual G
        G        
   A
        A        
 C
        C        
Em
       Em       
  No existe y no encuentro el lugar x2 Y la G
        G        
uitarra de acompañamiento sigue con el ritmo de: G
        G        
 A C
        C        
Em
       Em       
 (Acordes normales, osea sin puentes) mientras la 1° G
        G        
uitarra hace un punteo, el siguiente: e--------------------------------------------------  B
        B        
---------------------3--5-------------------------
 G
        G        
---4--2-----------4--------4------2h--------------
 D
        D        
---------5--2--5---------------5-----5h--2~-------
 A
        A        
--------------------------------------------------
 E
        E        
--------------------------------------------------
e-----------------------------------------  B
        B        
-----------------------------------------
 G
        G        
---4--2-----------2----------------------
 D
        D        
---------5--2--5-----5--2--2~~-----------
 A
        A        
-----------------------------------------
 E
        E        
-----------------------------------------
 B
        B        
ateria: Ts Ts ts! xD
        D        
   B
        B        
ajo:  G
        G        
-------------
 D
        D        
-------------
 A
        A        
--5-6-7------
 E
        E        
-------------
Y la 1° G
        G        
uitarra hace otro punteo: e-------------------------------------------------------  B
        B        
-------------------------------------------------------
 G
        G        
---4--3--2-2---2-0-2-0------4--3~-2-2--2-0-2-0---------
 D
        D        
-----------------------2-----------------------2-------
 A
        A        
-------------------------------------------------------
 E
        E        
-------------------------------------------------------
Despues del pequeño punteo, Manolo Rasguea con unos tipos de acordes un poco no tan conocidos, pero ahí les va:  E
        E        
*  D#
       D#       
*  D7
       D7       
* e---7----6----5----  B
        B        
---9----8----7----
 G
        G        
---7----6----5----
 D
        D        
---9----8----7----
 A
        A        
---7----6----5----
 E
        E        
---x----x----x----
D7*  E
        E        
*  D#
       D#       
*  D7
       D7       
*  E
        E        
*  D#
       D#       
*  D7
       D7       
* Pasadizos encontrados enigmas  E
        E        
5 Van fluyendo tras tus venas  D
        D        
5  E
        E        
5/E5  D
        D        
5/A5/D5  C
        C        
5 Heridas...heridas  E
        E        
5/E5  D
        D        
5/A5/D5  C
        C        
5 Y sólo espero palpitar  E
        E        
5/E5  D
        D        
5/A5/D5  C
        C        
5 Dejar mi alma en mi ser  E
        E        
5/E5  D
        D        
5/A5/D5  C
        C        
5 Ya no logro respirar Ya no entiendo que es mi piel G
        G        
   A
        A        
 C
        C        
Em
       Em       
  Hay algo en tu forma sensual G
        G        
   A
        A        
 C
        C        
Em
       Em       
  No existe y no encuentro el lugar G
        G        
   A
        A        
 C
        C        
Em
       Em       
  Hay algo en tu forma sensual G
        G        
   A
        A        
 C
        C        
Em
       Em       
  No existe y no encuentro el lugar Quiero respirar!!!  G
        G        
uitarra solo:  G
        G        
A
        A        
C
        C        
E
        E        
5 G
        G        
   A
        A        
 C
        C        
Em
       Em       
  Hay algo en tu forma sensual G
        G        
   A
        A        
 C
        C        
Em
       Em       
  No existe y no encuentro el lugar G
        G        
   A
        A        
 C
        C        
Em
       Em       
  Hay algo en tu forma sensual G
        G        
   A
        A        
 C
        C        
 A
        A        
 G
        G        
Em
       Em       
  No existe y no encu..en..tro el lugar... Final punteo: e---------------------  B
        B        
--2----3-2--1-1------
 G
        G        
-----------------2---
 D
        D        
---------------------
 A
        A        
---------------------
 E
        E        
---------------------
Espero que lo disfruten... c:

Líbido

Este fichero es trabajo propio de su transcriptor y representa su interpretación personal de la canción. El material contenido en esta página es para exclusivo uso privado, por lo que se prohibe su reproducción o retransmisión, así como su uso para fines comerciales.