Fantasma (BAJ) (4)


esta song la escribio mi pata victor peña
pero note errores sumamente grandes asi
q mando la correcion del caso para q todos
sean felices, su correo es
victorjavier007_ y es todo
un sex simbol sino preguntenle a natalia
jajajaja
saludos



 intro:
1--------------------------------------------------------
2--------------------------------------------------------
3--3--3----3--3------------0--0------------3--3----3--3--
4------------------1--1------------3--3------------------



estrofa:
1----------------------------------------------------------------
2----------------------------------------------------------------
3--3--3----3--3--------------------0--0------------3--3----3--3--
4------------------1--1----1--1------------3--3------------------


1----------------------------------------------------------------
2----------------------------------------------------------------
3--3--3----3--3--------------------0--0------------3--3----3--3--
4------------------1--1----1--1------------3--3------------------



cambio 1:
1--------------------------------
2--------------------------------
3--------------5---3--3----3--3--
4--5-5-3-3-1-1---3---------------


1--------------------------------
2--------------------------------
3--------------5---3--3----3--3--
4--5-5-3-3-1-1---3---------------


estrofa:
1----------------------------------------------------------------
2----------------------------------------------------------------
3--3--3----3--3--------------------0--0------------3--3----3--3--
4------------------1--1----1--1------------3--3------------------



interlude:
1----------------------------------------------------------------
2----------------------------------------------------------------
3--3--3----3--3--------------------0--0------------3--3----3--3--
4------------------1--1----1--1------------3--3------------------




cambio 1:
1--------------------------------
2--------------------------------
3--------------5---3--3----3--3--
4--5-5-3-3-1-1---3---------------


1--------------------------------
2--------------------------------
3--------------5---3--3----3--3--
4--5-5-3-3-1-1---3---------------



cambio 2:
1--------------------------------------------------------------------
2--------------------------------------------------------------------
3----------------------------5--5-5--------------------3--3----3--3--
4--1--1----0--0----5--5-5--------------1--1----3--3------------------


1--------------------------------------------------------------------
2--------------------------------------------------------------------
3----------------------------5--5-5--------------------3--3----3--3--
4--1--1----0--0----5--5-5--------------1--1----3--3------------------



cambio 1:
1--------------------------------
2--------------------------------
3--------------5---3--3----3--3--
4--5-5-3-3-1-1---3---------------


1--------------------------------
2--------------------------------
3--------------5---3--3----3--3--
4--5-5-3-3-1-1---3---------------



ending:
1-----------------------------
2-----------------------------
3--------------------------3--
4--5--5----4--4----3--3-------

Líbido

Este fichero es trabajo propio de su transcriptor y representa su interpretación personal de la canción. El material contenido en esta página es para exclusivo uso privado, por lo que se prohibe su reproducción o retransmisión, así como su uso para fines comerciales.