Esther Fe (TAB) (4)


                    E
        E        
sther F
        F        
e esta es otra cancion del acustico si se preguntan porq no envio las versiones original es porq se me malogro mi guitarra electrica entiendan ps primero tengo que aclarar que esta tablatura esta prohibida para cualquiera que se llame rommel o michael esta 100% completa el unico problema seria que no me acuerdo el nombre de algunos acordes por eso los pongo con los numeros 1 2 3 y 4 al final lo q importa esq suene bien  A
        A        
cordes  DO
       DO       
1 2  E
        E        
-----0-------  E
        E        
-----0------  E
        E        
----0------  B
        B        
-----1-------  B
        B        
-----1------  B
        B        
----0------  G
        G        
-----0-------  G
        G        
-----0------  G
        G        
----0------  D
        D        
-----2-------  D
        D        
-----2------  D
        D        
----2------  A
        A        
-----3-------  A
        A        
------------  A
        A        
----3------  E
        E        
-------------  E
        E        
------------  E
        E        
----3------ 3 4  A
        A        
RPEGIO  E
        E        
-----2-------  E
        E        
-----0------- E
        E        
-0-0-0-----  B
        B        
-----3-------  B
        B        
-----3------- B
        B        
-1h3---3---  G
        G        
-----4-------  G
        G        
-----2------- G
        G        
-----------  D
        D        
-------------  D
        D        
-----0------- D
        D        
-----------  A
        A        
-------------  A
        A        
-----2------- A
        A        
-----------  E
        E        
-------------  E
        E        
------------- E
        E        
----------- INTRO  E
        E        
-0----0--2--0--0-0-0---0----------2----2----------  B
        B        
-1----0--3--1--1h3---3-1-0h1-0----3------3-0h1-0--  G
        G        
-0----0--4--0----------0----------4--4------------  D
        D        
-2--2-------2----------2-------2------------------  A
        A        
-3--3-------3------------------3------------------  E
        E        
----3--------------------------3------------------  DO
       DO       
2  C
        C        
aminar con la misma piel 3  DO
       DO       
Sin el sol en tu rostro 1 2 3 Y recorrer con tus mismos pies  DO
       DO       
Hacia a donde iras  DO
       DO       
2 3  DO
       DO       
 DO
       DO       
2 Y vuelvo a andar sobre el mismo riel 3  DO
       DO       
 C
        C        
ontra el viento de la noche arpegio 1 2 Y me acerco mas al final 3  DO
       DO       
Ya no puedo esperarte 4 MIm
       MIm       
  SOL
       SOL       
  Y creo en ti RE
       RE       
  Voz de madrugada 4 MIm
       MIm       
  SOL
       SOL       
  Y soñar despertar RE
       RE       
   DO
       DO       
 E
        E        
n tus ojos y solo poder jurar MIm
       MIm       
  Que estaré bien  DO
       DO       
SOL
       SOL       
   DO
       DO       
SOL
       SOL       
  LAm
       LAm       
   E
        E        
------7-------------------------------------------  B-5
       B-5       
/7-----8----------------------------------------  G
        G        
----------------2/4-4h5-4--2----4h5-4--2----------  D
        D        
------------------------------2------------2------  A
        A        
--------------------------------------------------  E
        E        
--------------------------------------------------  DO
       DO       
2 Y vuelvo a andar sobre el mismo riel 3  DO
       DO       
Y el recuerdo de esta noche arpegio 1 2 Y me acerco mas al final 3  DO
       DO       
Ya no puedo esperar 4 MIm
       MIm       
  Y creo en ti SOL
       SOL       
  RE
       RE       
   E
        E        
n tu voz de madrugada 4 MIm
       MIm       
  SOL
       SOL       
  Y soñar despertar RE
       RE       
   DO
       DO       
 E
        E        
n tus ojos y solo poder jurar MIm
       MIm       
  Que estaré bien  DO
       DO       
SOL
       SOL       
   DO
       DO       
SOL
       SOL       
  Am
       Am       
  MIm
       MIm       
   E
        E        
--5------7-------------------------------------------  B
        B        
----5-------8--5---3---1-----1-----1-----0h1-0-------  G
        G        
------5------------------2-----2-----2----------2----  D
        D        
---------------------------2-----2-----2----------2--  A
        A        
---------------3---2---------------------------------  E
        E        
-----------------------------------------------------  DO
       DO       
SOL
       SOL       
  DO
       DO       
SOL
       SOL       
  DO
       DO       
SOL
       SOL       
  Am
       Am       
   E
        E        
------------------------------------------------------  B
        B        
------3--3h5--3---8---12---5---3----1-----1-----1-----  G
        G        
-4--5---------------------------------2-----2-----2---  D
        D        
----------------------------------------2-----2-----2-  A
        A        
-------------------7---10---3---2---------------------  E
        E        
------------------------------------------------------ MIm
       MIm       
   E
        E        
----------------------  B
        B        
-0h1-0----------------  G
        G        
-------2--------------  D
        D        
---------2------------  A
        A        
----------------------  E
        E        
---------------------- RE
       RE       
  MIm
       MIm       
  Y creo en ti SOL
       SOL       
  RE
       RE       
   E
        E        
n tu voz en la madrugada 4 MIm
       MIm       
  SOL
       SOL       
  Y soñar despertar RE
       RE       
   DO
       DO       
 E
        E        
n tus ojos y solo poder jurar 4 MIm
       MIm       
  SOL
       SOL       
  Que creo en ti RE
       RE       
  Voz de madrugada 4 MIm
       MIm       
  SOL
       SOL       
  Y soñar despertar RE
       RE       
   DO
       DO       
 E
        E        
n tus ojos y solo poder jurar Que estaré bien  E
        E        
--0----------  B
        B        
--0----------  G
        G        
--0----------  D
        D        
--2----------  A
        A        
-------------  E
        E        
------------- NOTA
        A        
 : en las partes de y solo poder jurar la primera  G
        G        
uitarra se queda en do y la segunda la baja así  E
        E        
--0--0--0--0-----------  B
        B        
--1--3--1--3-----------  G
        G        
--0--0--0--0-----------  D
        D        
--2--4--2--4-----------  A
        A        
--3--5--3--5-----------  E
        E        
----------------------- eso seria todo solo hay que prestar atencion a los solos porq que van como acompañamiento del piano y no se escucha tan fuerte solo es cuestion de agarrar el ritmo si tienen consultas dudas peticiones reclamos sugerencias y o mentadas de madre haganselas llegar a otro colaborador

Líbido

Este fichero es trabajo propio de su transcriptor y representa su interpretación personal de la canción. El material contenido en esta página es para exclusivo uso privado, por lo que se prohibe su reproducción o retransmisión, así como su uso para fines comerciales.