El Vampiro (BAJ) (4)


verso: 
 
G------------------------------------------------ 
D------------------------------------------------ 
A:--55555555----11111111-------------------------- 
E:---------------------------33333333----55555555- 
 
coro: 
 
G:------------------------------------------------ 
D:------------------------------------------------ 
A:------------33--33--------000------------------- 
E:--33--331---------1--000------------------------ 
 
solo( no....quiero dejar....) 
 
G:------------------------------------------------- 
D:0000--2-4--0000--2-4------------2---------------- 
A:----------------------1111--3-0-----0--0--6--5--0 
E:------------------------------------------------- 
 
y al final para que suene mejor: 
 
G:------------------------------------------------- 
D:------------------------------------------------- 
A:-555555555/1313131313131313---------------------- 
E:-----------------------------33333333--11111111--

Líbido

Este fichero es trabajo propio de su transcriptor y representa su interpretación personal de la canción. El material contenido en esta página es para exclusivo uso privado, por lo que se prohibe su reproducción o retransmisión, así como su uso para fines comerciales.