Como un perro (TAB) (3)


ACA
        A        
 LES VA C
        C        
ORREGIDA
        A        
  EN E
        E        
L TRASTE
        E        
 3 C
        C        
UERDA
        A        
 MI
       MI       
 menor Acordes:  G
        G        
? ??  C
        C        
Em
       Em       
   E
        E        
5*  E
        E        
5  D
        D        
5  C
        C        
5 e|----3-----3---6---3-----3--------------------------| B|----3-----2---5---2-----0--------------------------| G|----0-----3---6---0-----0-----------9----7---5-----| D|----0-----2---5---2-----2------2----9----7---5-----| A|----2-----0---0---3-----2------2----7----5---3-----| E|----3-------------------0------0----x----x---x-----| Intro: Se tocan dos compases de: [ G
        G        
- ? - C
        C        
E
        E        
] recién en el segundo compas entra la primera guitarra, dando un solo toque. La segunda guitarra va a estar repitiendo las mismas notas toda la canción.  E
        E        
l bajo antes de empezar Salim a cantar, para pasar a Sol, hace esto:  G
        G        
|--------------------------|  D
        D        
|--0h2-2-------------------|  A
        A        
|--------2-0---------------|  E
        E        
|------------3-------------| Y empieza así:  G
        G        
? Discutes sin razón, quiere llevar el control  C
        C        
Em
       Em       
  en tus manos no no no voy a bailar  G
        G        
? Me haces sentir mal, luego yo pido perdón  C
        C        
Em
       Em       
  siendo tu la única culpable de la situación Riff (EN E
        E        
L ? pasa a hacer ?? en tan solo despues de 3 rasgeos del ?)  G
        G        
? ??  C
        C        
Em
       Em       
  e|-3-----3----3---6----3----3----3----3-----3-------|  B
        B        
|-3--0---3---2---5- 2---2--1--1--1---0--0---0------|  G
        G        
|-0-0-0------3---6-3-3-----0-0-0-----0-0-0---------|  D
        D        
|-0----------2---5---------2---------2-------------|  A
        A        
|-2----------0---0---------3---------2-------------|  E
        E        
|-3----------------------------------0-------------| [ turututuuuuu aaaaahhhhh aaaaaaahhhhhh  G
        G        
? No soy tu esclavo, solo sé que yo te amo  C
        C        
Em
       Em       
  no me trares como un perro, me quitaré solo el sombrero  G
        G        
? Y mis manos que harán, si tu piel me hace falta  C
        C        
Em
       Em       
  ya no tengo ni un amigo, D
        D        
ios es mi único testigo Coro: Para los coros, la primera guitarra va a tocar el Riff, hasta que acabe el coro.  G
        G        
? Que puedo hacer para que me ames  C
        C        
Em
       Em       
  como yo te amo, como yo te amo  G
        G        
? Que puedo hacer para que me extrañes  C
        C        
Em
       Em       
  como yo te extraño, como yo te extraño  A
        A        
hora, la primera guitarra, da un toque en Sol, y continua así. e|------------------------------------------------|  B
        B        
|-3h5-3b-----------------------------------------|  G
        G        
|-----------0-3h5-3-0---0h3h0-----0h3-3-0--------|  D
        D        
|---------------------3-------3-----------2-0-2--|  A
        A        
|------------------------------------------------|  E
        E        
|------------------------------------------------| e|-----|------------------------------------------|  B
        B        
|-----|------------------------------------------|  G
        G        
|-----|--------9-x-9-9-9...---------9-x-9-9-9...-|  D
        D        
|-14s-|-2-2-2--9-x-9-9-9...--2-2-2--9-x-9-9-9...-|  A
        A        
|-14s-|-2-2-2--7-x-7-7-7...--2-2-2--7-x-7-7-7...-|  E
        E        
|-12s-|-0-0-0----------------0-0-0---------------| e|------------------------------------------------|  B
        B        
|------------------------------------------------|  G
        G        
|--9s7-5-5-5-5-5---5s7-7s9----------9-x-9-9-9...-|  D
        D        
|--9s7-5-5-5-5-5---5s7-7s9---2-2-2--9-x-9-9-9...-|  A
        A        
|--7s5-3-3-3-3-3---3s5-5s7---2-2-2--7-x-7-7-7...-|  E
        E        
|----------------------------0-0-0---------------| e|------------------------------------------------|  B
        B        
|------------------------------------------------|  G
        G        
|---------9-x-9-9-9...---------9-x-9-9-9...------|  D
        D        
|--2-2-2--9-x-9-9-9...--2-2-2--9-x-9-9-9...------|  A
        A        
|--2-2-2--7-x-7-7-7...--2-2-2--7-x-7-7-7...------|  E
        E        
|--0-0-0----------------0-0-0--------------------| e|------------------------------------------------|  B
        B        
|------------------------------------------------|  G
        G        
|--9s7-5-5-5-5-5---5s7-7s9----------9-x-9-9-9...-|  D
        D        
|--9s7-5-5-5-5-5---5s7-7s9---2-2-2--9-x-9-9-9...-|  A
        A        
|--7s5-3-3-3-3-3---3s5-5s7---2-2-2--7-x-7-7-7...-|  E
        E        
|----------------------------0-0-0---------------| e|---------10h12-10-12...--------10h12-10-12------|  B
        B        
|------------------------------------------------|  G
        G        
|------------------------------------------------|  D
        D        
|--2-2-2-----------------2-2-2-------------------|  A
        A        
|--2-2-2-----------------2-2-2-------------------|  E
        E        
|--0-0-0-----------------0-0-0-------------------| e|--12-10-10s12-15-15-------15-15-------15-15-----|  B
        B        
|--------------------15s17-------15s17-----------|  G
        G        
|------------------------------------------------| e|--12-12h15--12-10----10-------------------------|  B
        B        
|------------------12----12-12s5...--------------|  G
        G        
|------------------------------------------------| Que puedo hacer... (LA
       LA       
 entiendes???)  G
        G        
? Que puedo hacer para que me ames  C
        C        
Em
       Em       
  como yo te amo, como yo te amo  G
        G        
? Que puedo hacer para que me extrañes  C
        C        
Em
       Em       
  como yo te extraño, como yo te extraño  G
        G        
? No quiero escribir, más canciones que te aturden  C
        C        
Em
       Em       
  mis poemas no los lees, dime D
        D        
ios que me invento  G
        G        
? Como te enamoraré, si ya todo lo he intentado  C
        C        
Em
       Em       
  Dime que es lo que ha faltado,dime en que te he defraudado.

Líbido

Este fichero es trabajo propio de su transcriptor y representa su interpretación personal de la canción. El material contenido en esta página es para exclusivo uso privado, por lo que se prohibe su reproducción o retransmisión, así como su uso para fines comerciales.