Burbujas de Amor (BAJ) (3)


no me gustaba mucho, pero
despues de sacarla me cnmociono
esta chido
esta todita la cancion
parece que se repite pero no
tiene pequeños cambios
çahi les va completa
Intro
E|----|-------|-3-----|-------|
A|--5-|-0-5-2-|---2-5-|-0-00--|
D|----|-------|-------|-------|
G|----|-------|-------|-------|

Tengo un corazon
E|----|-33--|-33--|-33--|-33--|-3----|-------|-3---|-----|
A|--3-|---3-|---2-|---2-|---5-|--5---|--5-32-|--25-|--5--|x2
D|----|-----|-----|-----|-----|---23-|-3-----|-----|-5---|
G|----|-----|-----|-----|-----|------|-------|-----|-----|

Quisiera ser un pez
E|----|--3--|-33--|-33--|-33--|-3----|-------|-3---|-----|
A|--3-|---3-|---2-|---2-|---5-|--5---|--5-32-|--25-|--5--|
D|----|-5---|-----|-----|-----|---23-|-3-----|-----|-5---|
G|----|-----|-----|-----|-----|------|-------|-----|-----|

Uuuun pez
E|----|--3--|------|-33--|-33--|-3----|-------|-3---|-----|
A|--3-|---3-|-3--2-|---2-|---5-|--5---|--5-32-|--25-|--5--|
D|----|-5---|--55--|-----|-----|---23-|-3-----|-----|-5---|
G|----|-----|------|-----|-----|------|-------|-----|-----|

                            tururu
E|----|-33--|-33--|-33--|-33--|-33--|-113-|---3-|-5---|
A|--3-|---3-|---2-|---2-|---5-|---1-|-----|-----|--2--|
D|----|-----|-----|-----|-----|-----|-----|-35--|-----|
G|----|-----|-----|-----|-----|-----|-----|-----|-----|

Canta corazon
E|----|-33--|-33--|-33--|-33--|-3----|-------|-3---|-----|
A|--3-|---3-|---2-|---2-|---5-|--5---|--5-32-|--25-|--5--|
D|----|-----|-----|-----|-----|---23-|-3-----|-----|-5---|
G|----|-----|-----|-----|-----|------|-------|-----|-----|

Este corazon
E|----|--3--|------|-33--|-33--|-3----|-------|-3---|-----|
A|--3-|---3-|-3--2-|---2-|---5-|--5---|--5-32-|--25-|--5--|
D|----|-5---|--55--|-----|-----|---23-|-3-----|-----|-5---|
G|----|-----|------|-----|-----|------|-------|-----|-----|

Quisiera ser un pez
E|----|--3--|-33--|-33--|-33--|-3----|-------|-3---|-----|
A|--3-|---3-|---2-|---2-|---5-|--5---|--5-32-|--25-|--5--|
D|----|-5---|-----|-----|-----|---23-|-3-----|-----|-5---|
G|----|-----|-----|-----|-----|------|-------|-----|-----|

Uuuun pez
E|----|--3--|------|-33--|-33--|-3----|-------|-3---|-3-3---|
A|--3-|---3-|-3--2-|---2-|---5-|--5---|--5-32-|--25-|--5-3--|
D|----|-5---|--55--|-----|-----|---23-|-3-----|-----|-------|
G|----|-----|------|-----|-----|------|-------|-----|-------|

Una noche
E|------|---3-|----|---3-4-|-----|---3-|----|---3-4-|---6--|
A|----1-|-----|-5--|-3-----|---1-|-----|-5--|-3-----|-6----|
D|--33--|-3---|--5-|-------|-11--|-3---|--5-|-------|--6---|
G|------|--3--|----|-------|-----|--3--|----|-------|------|

E|-------|--3---|-3---|-33--|-33--|------|-------|-3---|--3--|
A|-----3-|---3--|--32-|---2-|---5-|--5---|--5-32-|--25-|-3---|
D|--3----|-5----|-----|-----|-----|---23-|-3-----|-----|-----|
G|---3---|------|-----|-----|-----|-2----|-------|-----|-----|

Quisiera ser un pez
E|----|--3--|------|-33--|-33--|-3----|-------|-3---|-----|
A|--3-|---3-|-3--2-|---2-|---5-|--5---|--5-32-|--25-|--5--|
D|----|-5---|--55--|-----|-----|---23-|-3-----|-----|-5---|
G|----|-----|------|-----|-----|------|-------|-----|-----|

Uuuun pez
E|----|---3--|------|-33--|-33--|-3----|-------|-3---|------|
A|--3-|-3--3-|-3--2-|---2-|---5-|--5---|--5-32-|--25-|-5-5--|
D|----|--5---|--55--|-----|-----|---23-|-3-----|-----|--5---|
G|----|------|------|-----|-----|------|-------|-----|------|

para tocar mi nariz
E|----|-33--|-33--|-33--|-33--|-3----|-------|-3---|-33--|
A|--3-|---3-|---2-|---2-|---5-|--5---|--5-32-|--25-|-----|
D|----|-----|-----|-----|-----|---23-|-3-----|-----|-----|
G|----|-----|-----|-----|-----|------|-------|-----|-----|

Uuuun pez
E|----|---3--|------|-33--|-33--|-3----|-------|-3---|-33--|
A|--3-|-3--3-|-3--2-|---2-|---5-|--5---|--5-32-|--25-|-----|
D|----|--5---|--55--|-----|-----|---23-|-3-----|-----|-----|
G|----|------|------|-----|-----|------|-------|-----|-----|

en tii
E|--4----|-6----|----|
A|----6--|---8--|-3--|
D|-----6-|----8-|----|
G|-------|------|----|

atte. miauricio gatolar

Juan Luis G
        G        
uerra

Este fichero es trabajo propio de su transcriptor y representa su interpretación personal de la canción. El material contenido en esta página es para exclusivo uso privado, por lo que se prohibe su reproducción o retransmisión, así como su uso para fines comerciales.



Buscar canción en YouTube Buscar cover en YouTube


Más canciones