Sayera (TAB)


Intro:

x3

1-------------------------------------------------
2-------------------------------------------------
3-------2-----2----2------------------2-----2-----
4----4-----4----4----4---3----2--4--4----4-----4--
5---------------------------4---------------------
6-------------------------------------------------

x2

1---9-9-9-9--12--9--7--5---9-9-9-9--12--9--7--5---
2-------------------------------------------------
3-------------------------------------------------
4-------------------------------------------------
5-------------------------------------------------
6-------------------------------------------------

sigue

1---5-5-5-5-5-5---5--9--5-5-5--4--2----0--2--4
2---------------5-----------------------------
3---------------------------------------------
4---------------------------------------------
5---------------------------------------------
6---------------------------------------------


FA#m
       FA#m       
   FA#
       FA#       
7 Fiesta en mi corazón, noches de carnaval SIm
       SIm       
   DO#
       DO#       
7 suena la saya y en sus ojos me vuelvo a enamorar RE
       RE       
  LA
       LA       
  guardo el recuerdo de los besos que ella me supo dar SIm
       SIm       
   DO#
       DO#       
7 FA#m
       FA#m       
  tampoco sus caderas podré olvidar. Parece que nació, solo para bailar corre la saya por sus venas, no hay modo de escapar andar detrás de su pollera, dónde me llevará porque al amanecer voy a demorar. LA
       LA       
  Quiero pasar la noche entera bailando saya con mi negra  DO#
       DO#       
7 FA#m
       FA#m       
  ahorita que ha llegado el carnaval, me voy a enamorar. Quiero pasar la noche entera bailando saya con mi negra ahorita que ha llegado el carnaval, me voy a enamorar. RE
       RE       
  No te he dejado de querer, no te he dejado de adorar MI
       MI       
  LA
       LA       
  solo lo sabe D
        D        
ios. LA
       LA       
  Negra no me hagas padecer hasta que vuelva el carnaval, DO#7 FA#m
       FA#m       
  dame tu corazón. Negra no me hagas padecer hasta que vuelva el carnaval, dame tu corazón. Saya FA#m
       FA#m       
   DO#
       DO#       
7 FA#m
       FA#m       
  Sigue con el meneo, baila la saya sensual Sigue con el meneo (meneo), baila la saya sensual (menea) Sigue con el meneo (meneo), baila la saya sensual (menea) Sigue con el meneo (meneo), baila la saya sensual (menea) Quiero pasar la noche entera bailando saya con mi negra ahorita que ha llegado el carnaval, me voy a enamorar. Quiero pasar la noche entera bailando saya con mi negra ahorita que ha llegado el carnaval, me voy a enamorar. No te he dejado de querer, no te he dejado de adorar solo lo sabe D
        D        
ios. Negra no me hagas padecer hasta que vuelva el carnaval, dame tu corazón. Negra no me hagas padecer hasta que vuelva el carnaval, dame tu corazón. Saya Sigue con el meneo, baila la saya sensual Sigue con el meneo (meneo), baila la saya sensual (mi negra) Sigue con el meneo (meneo), baila la saya sensual (mi negra) Sigue con el meneo (meneo), baila la saya sensual (mi negra)

Jorge Rojas

Este fichero es trabajo propio de su transcriptor y representa su interpretación personal de la canción. El material contenido en esta página es para exclusivo uso privado, por lo que se prohibe su reproducción o retransmisión, así como su uso para fines comerciales.