Man On The Side


Intro 
 

e----------------------------------------------------------------------------------------------  
b---/9-------------------------------------3--3--3---------------------------------------------  
g---/9--11--9------------------------------2--2--2------7----7h9-------------------------------  
d-------11--9-----------9------------------0--2--0---/9---9-------9s7--5---7---5h6-------------  
a--------------11---/11---11s9p7---7-------------------------------------7---7------7p5---7----  
e--------------------------------9---9/--0-------3--------------------------------------7---0--  

 

e------------------------------------------------------------------------------------------ 
b---3--3--3------------------12----9-------------------------------------------/9---------- 
g---2--2--2----------9----------11---11-11p9----9----------9-------------------/9--11--9--- 
d---0--2--0--------9----11-------------------11---11--9----------------------------11--9--- 
a-------------9h11------------------------------------9h11---9h10p9-7-9-7------------------ 
e---------3--------------9------------------------------------------------9s0-------------- 

 

e--------------------------------------------------------------------------------------------- 
b-------------------------------------3--3--3----------8-------------------------3--3--3--3--- 
g--------9----------------------------2--2--2------7h8---9-7----7----------------2--2--0--2--- 
d--------9--(9)-----------------------0--2--0---/9-----------/9---9s7-5----------0--2--0--0--- 
a---9h11-----9h10p9-7-------7-(9)/--------------------------------------7-5------------------- 
e---------------------9s7-0----9-/-0--------0-------------------------------7~-0-------3--2--- 

 
Part 1 
 
Verse 
 

e----------------------------------------------------------------------------------------- 
b---5-------5----5--------5-----5----5-----5---4------4h5--4-----5----5-------5----5------ 
g---4-------4----4--------4-----4h6--4-----4---4------4----4-----4h6--4-------4----4------ 
d---6-------4h6--4--------7-----7----7-----7---4------4h6--4-----7------7-----4h6--4------ 
a-------------------7--4--4--4----------4----------------------0-----------0----------7--- 
e---0--0-0-------------------------------------7--7-7------------------------------7------ 

 
I think he plays (5x745x) instead of (x0745x) 
 
Part 2 
 
"Excuse me.." 
 

e---0----------0----------------0-------------------------------- 
b---0---9--7---0---------4--5---0---9--9--9----2---4--5---4--5--- 
g---2---9--8---1---2-4---4--4---2---9--9--9----3---4--4---4--4--- 
d---2---7--7---2---2-2---2--2---2---7--7--9----2---2--2---4--4--- 
a---x---x--x---2---x-x---0--0---x---x--x--x----x---0--0---2--2--- 
e---2---7--7---0---2-4----------2---7--8--9----2----------------- 

 
Part 3 
 
Chorus 
 

e---0---0---0---0---------- ---0---0---0---0----0-------- 
b---0---0---0---0---------- ---0---0---0---0----3--(2)--- 
g---1---2---2---4---------- ---1---2---4---2----2--(2)--- 
d---2---2---2---4---(x2)--- ---2---2---4---2----0--(2)--- 
a---2---x---0---2---------- ---2---x---x---0--------4---- 
e---0---2---x---x---------- ---0---2---4---x------------- 

 
Part 4  
 
"Excuse me.." (second time) 
 

e---0----------0----------0-------------------------------- 
b---0---9--7---0---9--7---0---9--9--9----2---4--5---4--5--- 
g---2---9--8---2---9--8---2---9--9--9----3---4--4---4--4--- 
d---2---7--7---2---7--7---2---7--7--9----2---2--2---4--4--- 
a---x---x--x---x---x--x---x---x--x--x----x---0--0---2--2--- 
e---2---7--7---2---7--7---2---7--8--9----2----------------- 

 
Part 5 
 
"I fell in love.." 
 

e---3---5---0---------7--------7----5----3---5------------------- 
b---3---5---0---------5------5------5----3---5-----------3---3--- 
g---5---7---1---2-4---5----5--------5----5---7---4---4---2---2--- 
d---5---7---2---2-2---x------------------5---7---2---2---0---0--- 
a---3---5---2---x-x---x------------------3---5---0---x---x---x--- 
e-----------0---2-4---5--5----------5----------------4---3---2--- 

 
Part 6 
 

e----------------0---------------------------0--------------0------------0---------- 
b----------0-0--------5---------5---------7-------------0h7---7------0h7---7-------- 
g---1------1-1h2------7-------7---------9---------8----------------8---------8------ 
d---2------2-2--------7-----7---------9-----------9--------------9------------------ 
a---------------------x---------------------------x--------------------------------- 
e---0--0-0------------7---7---------9-------------7---7-------------------------0--- 

                                                  T

e-------------0--------------0--------------------------------------------------------- 
b---------0h5---5---------0-----/9--------------------------------/9------------------- 
g-------6---------6---6---8-----/9--11---9---------9-----------------11-9----------9--- 
d-----7-------------------9------------------------9----------------------11-------9--- 
a-------------------------x----------------(0)-9h11---9h10p9-7----------------9h11----- 
e---5---------------5-----7------0-----0-----------------------9---9------------------- 

 

e-------------------------------------0----0--- 
b---------------0-7-0---0--9--0---0--------0--- 
g---------------8-------8--8--8---------6--6--- 
d---------------9-------9-----------7------7--- 
a---9h10p9-7----------------------------------- 
e------------7--7-------7---------5------------ 

 
Part 7 
 
"Excuse me.." (third time) 
 

e---0--------0----------0--------------------------------- 
b---0---9/---0---9--7---0---9--9--7----2---4--5---9---9--- 
g---2---9/---2---9--8---2---9--9--9----3---4--4---7---7--- 
d---2---7/---2---7--7---2---7--7--9----2---2--2--10--10--- 
a---x---x----x---x--x---x---x--x--x----x---0--0----------- 
e---2---7/---2---7--7---2---7--8--9----2----------8--10--- 

 
You can replace (8x1079x) and (10x1079x) by (x35533) and (xx0533) 
 
Intro 
 
(1) 
 
Six numbers, one more to dial  
before I'm before you tonight 
I tried to call 
been busy all night  
gave up waiting at daylight  
 
(2) E
        E        
xcuse me Mrs. B
        B        
usybody could you pencil me in when you can though we both know that the worst part about it is I would be free when you wanted me (3) I am the man on the side hoping you'll make up your mind I am the one who will swallow his pride life as the man on the side (1) One of the many One of the few to stand back and wait for you (4) E
        E        
xcuse me Mrs. B
        B        
usybody could you pencil me in when you can though we both know that the worst part about it is I would be free when you wanted me (3) I am the man on the side hoping you'll make up your mind I am the one who will swallow his pride Life as the man on the side (5) I fell in love with the dream that I built of you playing the part of the queen Taking my own advice I'm giving up tonight Good luck to you and the king (7) E
        E        
xcuse me Mrs. B
        B        
usybody could you pencil me in though we both know that the worst part about it is I would be free when you wanted me (3) I am the man on the side hoping you'll make up your mind I am the one who will swallow his pride life as the man you know life as the man living life as the man on the side

John Mayer
(Guitar chords, ukelele, keyboard, tabs, bass, drums and lyrics)

Este fichero es trabajo propio de su transcriptor y representa su interpretación personal de la canción. El material contenido en esta página es para exclusivo uso privado, por lo que se prohibe su reproducción o retransmisión, así como su uso para fines comerciales.



Buscar canción en YouTube Buscar cover en YouTube


Más canciones