Babas del diablo (BAJ) (2)


Buenas a todos!
Espero que les funcione.
Ante cualquier duda o crítica  escríbanme. (laumoriondo93)

INTRO: Parte "lenta" (1°)
E--6-------6--2----------4----------------7----------------
A-------6-----------4---------6--------------9-------------
D-----------------------4---------6-------------9----------
G----------------------------------------------------------

INTRO: Parte "rápida" (2°)
E---------6--6---4----2--------2--3--4--------4-5-6-7-------------
A-------6--6-------------4----------------6------------9----------
D-----------------------------4----------------6----------9-------
G-----------------------------------------------------------------

Acordes de estrofas: La#m 

Este fichero es trabajo propio de su transcriptor y representa su interpretación personal de la canción. El material contenido en esta página es para exclusivo uso privado, por lo que se prohibe su reproducción o retransmisión, así como su uso para fines comerciales.