Hechizo (TAB) (3)


Esta es la version del album en dirtecto Parasiempre,
aqui incluyo = la de entre dos tierras, es muy facil
de tokar....

Hechizo

Intro:
E||-----------------------|          |-----------------------|
B||-----------------------|          |-----------------------|
G||-----------------------|          |-----------------------|
D||-----5-------5----5----| x12      |-----5-------5----5----| x4
A||--3-------3------------|          |--7-------7------------|
E||-----------------------|          |-----------------------|

Verso 1:
|-----------------------|-----------------------|-----------------------|
|-----------------------|-----------------------|-----------------------|
|-----------------------|-----------------------|-----------------------|
|-----5-------5----5----|-----5-------5----5----|-----5-------5----5----|
|--3-------3------------|--3-------3------------|--3-------3------------|
|-----------------------|-----------------------|-----------------------|

|-----------------------|
|-----------------------|
|-----------------------|
|-----5-------5----5----|
|--3-------3------------|
|-----------------------|

-----------------------|-----------------------|-----------------------|
-----------------------|-----------------------|-----------------------|
-----------------------|-----------------------|-----------------------|
-----5--------5---5----|-----5-------5---5-----|-----5-------5----5----|
--7-------7------------|--7-------7------------|--7-------7------------|
-----------------------|-----------------------|-----------------------|

-----------------------|-----------------------|-----------------------|
-----------------------|-----------------------|-----------------------|
-----------------------|-----------------------|-----------------------|
-----5-------5----5----|-----5-------5----5----|-----5-------5----5----|
--7-------7------------|--3-------3------------|--3-------3------------|
-----------------------|-----------------------|-----------------------|

|-----------------------|-----------------------|
|-----------------------|-----------------------|
|-----------------------|-----------------------|
|-----5-------5----5----|-----5-------5----5----|
|--3-------3------------|--3-------3------------|
|-----------------------|-----------------------|

-----------------------|-----------------------|
-----------------------|-----------------------|
-----------------------|-----------------------|
-----5-------5----5----|-----5-------5----5----|
--7-------7------------|--7-------7------------|
-----------------------|-----------------------|

------------------------|--------------------|----------------------|
------------------------|--------------------|-----6--5-------------|
-------------7-------5--|--------------------|-----------5----------|
-----5------------------|-------9------------|----------------------|
--7-------7-------7-----|----7---------------|--8-------------------|
------------------------|--------------------|----------------------|

-----------------------|--3----3--3----3----3--|--3----3----3----3----|
---------5-------------|--3----3--3----3----3--|--3----3----3----3----|
-----5-------5---------|--0----0--0----0----0--|--0----0----0----0----|
--7--------------7-----|--0----0--0----0----0--|--0----0----0----0----|
-----------------------|-----------------------|----------------------|
-----------------------|-----------------------|----------------------|

porque.........                        uhhhhhh  uhhhhhhhh
--0--------|--0--------|--0--------|--0--------|
--0--------|--0--------|--0--------|--0--------|
--9--------|--9--------|--9--------|--9--------|
--9--------|--9--------|--9--------|--9--------|
--7--------|--7--------|--7--------|--7--------|
-----------|-----------|-----------|-----------|
Verso 2 (igual que el primer verso)

completamente agotados                       y no entiendes
-----------------------|--3----3--3----3----3--|--3----3----3----3----|
---------5-------------|--3----3--3----3----3--|--3----3----3----3----|
-----5-------5---------|--0----0--0----0----0--|--0----0----0----0----|
--7--------------7-----|--0----0--0----0----0--|--0----0----0----0----|
-----------------------|-----------------------|----------------------|
-----------------------|-----------------------|----------------------|

porque.........
--0----0--0----0--0----|--0----0--0----0--0----|--0----0--0----0--0----|
--0----0--0----0--0----|--0----0--0----0--0----|--0----0--0----0--0----|
--9----9--9----9--9----|--9----9--9----9--9----|--9----9--9----9--9----|
--9----9--9----9--9----|--9----9--9----9--9----|--9----9--9----9--9----|
--7----7--7----7--7----|--7----7--7----7--7----|--7----7--7----7--7----|
-----------------------|-----------------------|-----------------------|

--0----0--0----0--0----|
--0----0--0----0--0----|
--9----9--9----9--9----|
--9----9--9----9--9----|
--7----7--7----7--7----|
-----------------------|

 Vamonos.................
  F
        F        
--------------------------|--------------------------| --6--6--6--6--6--6--6--6--|--6--6--6--6--6--6--6--6--| --5--5--5--5--5--5--5--5--|--5--5--5--5--5--5--5--5--| --7--7--7--7--7--7--7--7--|--7--7--7--7--7--7--7--7--| --8--8--8--8--8--8--8--8--|--8--8--8--8--8--8--8--8--| --------------------------|--------------------------|  E
        E        
xterior..............  C
        C        
--0--0--0--0--0--0--0--0--|--0--0--0--0--0--0--0--0--| --1--1--1--1--1--1--1--1--|--1--1--1--1--1--1--1--1--| --0--0--0--0--0--0--0--0--|--0--0--0--0--0--0--0--0--| --2--2--2--2--2--2--2--2--|--2--2--2--2--2--2--2--2--| --3--3--3--3--3--3--3--3--|--3--3--3--3--3--3--3--3--| --3--3--3--3--3--3--3--3--|--3--3--3--3--3--3--3--3--| Los ojos......... Am
       Am       
  --0--0--0--0--0--0--0--0--|--0--0--0--0--0--0--0--0--| --1--1--1--1--1--1--1--1--|--1--1--1--1--1--1--1--1--| --2--2--2--2--2--2--2--2--|--2--2--2--2--2--2--2--2--| --2--2--2--2--2--2--2--3--|--2--2--2--2--2--2--2--3--| --0--0--0--0--0--0--0--0--|--0--0--0--0--0--0--0--0--| --------------------------|--------------------------|  C
        C        
olor............ Mientras toda da igual.........  G
        G        
--3--3--3--3--3--3--3--3--|--3--3--3--3--3--3--3--3--| --3--3--3--3--3--3--3--3--|--3--3--3--3--3--3--3--3--| --0--0--0--0--0--0--0--0--|--0--0--0--0--0--0--0--0--| x2 --0--0--0--0--0--0--0--0--|--0--0--0--0--0--0--0--0--| --2--2--2--2--2--2--2--2--|--2--2--2--2--2--2--2--2--| --3--3--3--3--3--3--3--3--|--3--3--3--3--3--3--3--3--| Interlude: Mientras toda da igual......... --------------------|--------------------| --------------------|------------3-------| --------------------|--------------------| ----5-------5----5--|----5------------5--| -3-------3----------|-3-------3----------| --------------------|--------------------| --------------------|--------------------| ------------5p3-----|------------5p3-----| --------------------|--------------------| ----5------------5--|----5------------5--| -3-------3----------|-3-------3----------| --------------------|--------------------| -----------------------| -----------------------| -----------------------| x4 -----5--------5---5----| --7-------7------------| -----------------------| --------------------|--------------------| ------------3-------|------------5p3-----| --------------------|--------------------| ----5------------5--|----5------------5--| -3-------3----------|-3-------3----------| --------------------|--------------------| --------------------|--------------------| ------------5p3-----|------------5p3-----| --------------------|--------------------| ----5------------5--|----5------------5--| -3-------3----------|-3-------3----------| --------------------|--------------------| ------------7----7--| ------------0----0--| ------------0----0--| esta figura x4 ----5-------5----5--| -7------7-----------| --------------------| Verso 3 (igual que el primer verso).... completamente agotados y no entiendes -----------------------|--3----3--3----3----3--|--3----3----3----3----| ---------5-------------|--3----3--3----3----3--|--3----3----3----3----| -----5-------5---------|--0----0--0----0----0--|--0----0----0----0----| --7--------------7-----|--0----0--0----0----0--|--0----0----0----0----| -----------------------|-----------------------|----------------------| -----------------------|-----------------------|----------------------| porque......... --0----0--0----0--0----|--0----0--0----0--0----|--0----0--0----0--0----| --0----0--0----0--0----|--0----0--0----0--0----|--0----0--0----0--0----| --9----9--9----9--9----|--9----9--9----9--9----|--9----9--9----9--9----| --9----9--9----9--9----|--9----9--9----9--9----|--9----9--9----9--9----| --7----7--7----7--7----|--7----7--7----7--7----|--7----7--7----7--7----| -----------------------|-----------------------|-----------------------| --0----0--0----0--0----| --0----0--0----0--0----| --9----9--9----9--9----| --9----9--9----9--9----| --7----7--7----7--7----| -----------------------| Vamonos.................  F
        F        
--------------------------|--------------------------| --6--6--6--6--6--6--6--6--|--6--6--6--6--6--6--6--6--| --5--5--5--5--5--5--5--5--|--5--5--5--5--5--5--5--5--| --7--7--7--7--7--7--7--7--|--7--7--7--7--7--7--7--7--| --8--8--8--8--8--8--8--8--|--8--8--8--8--8--8--8--8--| --------------------------|--------------------------|  E
        E        
xterior..............  C
        C        
--0--0--0--0--0--0--0--0--|--0--0--0--0--0--0--0--0--| --1--1--1--1--1--1--1--1--|--1--1--1--1--1--1--1--1--| --0--0--0--0--0--0--0--0--|--0--0--0--0--0--0--0--0--| --2--2--2--2--2--2--2--2--|--2--2--2--2--2--2--2--2--| --3--3--3--3--3--3--3--3--|--3--3--3--3--3--3--3--3--| --3--3--3--3--3--3--3--3--|--3--3--3--3--3--3--3--3--| Los ojos......... Am
       Am       
  --0--0--0--0--0--0--0--0--|--0--0--0--0--0--0--0--0--| --1--1--1--1--1--1--1--1--|--1--1--1--1--1--1--1--1--| --2--2--2--2--2--2--2--2--|--2--2--2--2--2--2--2--2--| --2--2--2--2--2--2--2--3--|--2--2--2--2--2--2--2--3--| --0--0--0--0--0--0--0--0--|--0--0--0--0--0--0--0--0--| --------------------------|--------------------------|  C
        C        
olor............  G
        G        
--3--3--3--3--3--3--3--3--|--3--3--3--3--3--3--3--3--| --3--3--3--3--3--3--3--3--|--3--3--3--3--3--3--3--3--| --0--0--0--0--0--0--0--0--|--0--0--0--0--0--0--0--0--| x2 --0--0--0--0--0--0--0--0--|--0--0--0--0--0--0--0--0--| --2--2--2--2--2--2--2--2--|--2--2--2--2--2--2--2--2--| --3--3--3--3--3--3--3--3--|--3--3--3--3--3--3--3--3--| Vamonos................. --------------------------|--------------------------| --6--6--6--6--6--6--6--6--|--6--6--6--6--6--6--6--6--| --5--5--5--5--5--5--5--5--|--5--5--5--5--5--5--5--5--| --7--7--7--7--7--7--7--7--|--7--7--7--7--7--7--7--7--| --8--8--8--8--8--8--8--8--|--8--8--8--8--8--8--8--8--| --------------------------|--------------------------|  E
        E        
xterior..............  C
        C        
--0--0--0--0--0--0--0--0--|--0--0--0--0--0--0--0--0--| --1--1--1--1--1--1--1--1--|--1--1--1--1--1--1--1--1--| --0--0--0--0--0--0--0--0--|--0--0--0--0--0--0--0--0--| --2--2--2--2--2--2--2--2--|--2--2--2--2--2--2--2--2--| --3--3--3--3--3--3--3--3--|--3--3--3--3--3--3--3--3--| --3--3--3--3--3--3--3--3--|--3--3--3--3--3--3--3--3--| Los ojos......... Am
       Am       
  --0--0--0--0--0--0--0--0--|--0--0--0--0--0--0--0--0--| --1--1--1--1--1--1--1--1--|--1--1--1--1--1--1--1--1--| --2--2--2--2--2--2--2--2--|--2--2--2--2--2--2--2--2--| --2--2--2--2--2--2--2--3--|--2--2--2--2--2--2--2--3--| --0--0--0--0--0--0--0--0--|--0--0--0--0--0--0--0--0--| --------------------------|--------------------------|  C
        C        
olor............  G
        G        
--3--3--3--3--3--3--3--3--|--3--3--3--3--3--3--3--3--| --3--3--3--3--3--3--3--3--|--3--3--3--3--3--3--3--3--| --0--0--0--0--0--0--0--0--|--0--0--0--0--0--0--0--0--| x2 --0--0--0--0--0--0--0--0--|--0--0--0--0--0--0--0--0--| --2--2--2--2--2--2--2--2--|--2--2--2--2--2--2--2--2--| --3--3--3--3--3--3--3--3--|--3--3--3--3--3--3--3--3--| Mientras todo va igual............... Em
       Em       
  --------------------------|--------------------------| --------------------------|--------------------------| --9--9--9--9--9--9--9--9--|--9--9--9--9--9--9--9--9--| --9--9--9--9--9--9--9--9--|--9--9--9--9--9--9--9--9--| x2 --7--7--7--7--7--7--7--7--|--7--7--7--7--7--7--7--7--| --------------------------|--------------------------| Ocho..........  F
        F        
----------------------------------| ----------------------------------| --10--10--10--10--10--10--10--10--| --10--10--10--10--10--10--10--10--| ---8---8---8---8---8---8---8---8--| ----------------------------------| Siete....... Seis......... F#
       F#       
  ----------------------------------| ----------------------------------| --11--11--11--11--11--11--11--11--| --11--11--11--11--11--11--11--11--| x2 ---9---9---9---9---9---9---9---9--| ----------------------------------| Cinco......  G
        G        
----------------------------------| ----------------------------------| --12--12--12--12--12--12--12--12--| --12--12--12--12--12--12--12--12--| --10--10--10--10--10--10--10--10--| ----------------------------------| Cuatro......... G#
       G#       
  ----------------------------------| ----------------------------------| --13--13--13--13--13--13--13--13--| --13--13--13--13--13--13--13--13--| --11--11--11--11--11--11--11--11--| ----------------------------------| Tres.........  A
        A        
----------------------------------| ----------------------------------| --14--14--14--14--14--14--14--14--| --14--14--14--14--14--14--14--14--| --12--12--12--12--12--12--12--12--| ----------------------------------| Dos......... A#
       A#       
  ----------------------------------| ----------------------------------| --15--15--15--15--15--15--15--15--| --15--15--15--15--15--15--15--15--| --13--13--13--13--13--13--13--13--| ----------------------------------| Uno.....  B
        B        
----------------------------------| ----------------------------------| --16--16--16--16--16--16--16--16--| --16--16--16--16--16--16--16--16--| --14--14--14--14--14--14--14--14--| ----------------------------------| Entre dos tierras Bm
       Bm       
  E
        E        
 |---7------|
B
        B        
 |---7------|
G
        G        
 |---7------|
D
        D        
 |---9------| x4
A
        A        
 |---9------|
E
        E        
 |---7------|
Luego... Bm
       Bm       
  E
        E        
 |---7----------|---7----------|
B
        B        
 |---7----------|---7----------|
G
        G        
 |---7----------|---7----------|
D
        D        
 |---9----------|---9----------|
A
        A        
 |---9----------|---9----------|
E
        E        
 |---7----------|---7----------|
Bm
       Bm       
   G
        G        
E
        E        
 |---7----------|---3----------|
B
        B        
 |---7----------|---3----------|
G
        G        
 |---7----------|---4----------|
D
        D        
 |---9----------|---5----------|
A
        A        
 |---9----------|---5----------|
E
        E        
 |---7----------|---3----------|
Bm
       Bm       
  E
        E        
 |---7----------|---7----------|
B
        B        
 |---7----------|---7----------|
G
        G        
 |---7----------|---7----------|
D
        D        
 |---9----------|---9----------|
A
        A        
 |---9----------|---9----------|
E
        E        
 |---7----------|---7----------|
Bm
       Bm       
   A
        A        
E
        E        
 |---7----------|---5----------|
B
        B        
 |---7----------|---5----------|
G
        G        
 |---7----------|---6----------|
D
        D        
 |---9----------|---7----------|
A
        A        
 |---9----------|---7----------|
E
        E        
 |---7----------|---5----------|
Ritmo... Bm
       Bm       
  E
        E        
 |---7-7-7-7-7-7-7-7----|---7-7-7-7-7-7-7-7----|
B
        B        
 |---7-7-7-7-7-7-7-7----|---7-7-7-7-7-7-7-7----|
G
        G        
 |---7-7-7-7-7-7-7-7----|---7-7-7-7-7-7-7-7----|
D
        D        
 |---9-9-9-9-9-9-9-9----|---9-9-9-9-9-9-9-9----|
A
        A        
 |---9-9-9-9-9-9-9-9----|---9-9-9-9-9-9-9-9----|
E
        E        
 |---7-7-7-7-7-7-7-7----|---7-7-7-7-7-7-7-7----|
Bm
       Bm       
   G
        G        
E
        E        
 |---7-7-7-7-7-7-7-7----|---3-3-3-3-3----------|
B
        B        
 |---7-7-7-7-7-7-7-7----|---3-3-3-3-3----------|
G
        G        
 |---7-7-7-7-7-7-7-7----|---0-0-0-0-0----------|
D
        D        
 |---9-9-9-9-9-9-9-9----|---x-x-x-x-x----------|
A
        A        
 |---9-9-9-9-9-9-9-9----|---x-x-x-x-x----------|
E
        E        
 |---7-7-7-7-7-7-7-7----|---x-x-x-x-x----------|
Bm
       Bm       
  E
        E        
 |---7-7-7-7-7-7-7-7----|---7-7-7-7-7-7-7-7----|
B
        B        
 |---7-7-7-7-7-7-7-7----|---7-7-7-7-7-7-7-7----|
G
        G        
 |---7-7-7-7-7-7-7-7----|---7-7-7-7-7-7-7-7----|
D
        D        
 |---9-9-9-9-9-9-9-9----|---9-9-9-9-9-9-9-9----|
A
        A        
 |---9-9-9-9-9-9-9-9----|---9-9-9-9-9-9-9-9----|
E
        E        
 |---7-7-7-7-7-7-7-7----|---7-7-7-7-7-7-7-7----|
Bm
       Bm       
   A
        A        
E
        E        
 |---7-7-7-7-7-7-7-7----|---5-5-5-5-5-----|
B
        B        
 |---7-7-7-7-7-7-7-7----|---5-5-5-5-5-----|
G
        G        
 |---7-7-7-7-7-7-7-7----|---6-6-6-6-6-----|
D
        D        
 |---9-9-9-9-9-9-9-9----|---7-7-7-7-7-----|
A
        A        
 |---9-9-9-9-9-9-9-9----|---7-7-7-7-7-----|
E
        E        
 |---7-7-7-7-7-7-7-7----|---5-5-5-5-5-----|
Bm
       Bm       
  E
        E        
 |---7-7-7-7-7-7-7-7----|---7-7-7-7-7-7-7-7----|
B
        B        
 |---7-7-7-7-7-7-7-7----|---7-7-7-7-7-7-7-7----|
G
        G        
 |---7-7-7-7-7-7-7-7----|---7-7-7-7-7-7-7-7----|
D
        D        
 |---9-9-9-9-9-9-9-9----|---9-9-9-9-9-9-9-9----|
A
        A        
 |---9-9-9-9-9-9-9-9----|---9-9-9-9-9-9-9-9----|
E
        E        
 |---7-7-7-7-7-7-7-7----|---7-7-7-7-7-7-7-7----|
Bm
       Bm       
   G
        G        
E
        E        
 |---7-7-7-7-7-7-7-7----|---3-3-3-3-3----------|
B
        B        
 |---7-7-7-7-7-7-7-7----|---3-3-3-3-3----------|
G
        G        
 |---7-7-7-7-7-7-7-7----|---0-0-0-0-0----------|
D
        D        
 |---9-9-9-9-9-9-9-9----|---x-x-x-x-x----------|
A
        A        
 |---9-9-9-9-9-9-9-9----|---x-x-x-x-x----------|
E
        E        
 |---7-7-7-7-7-7-7-7----|---x-x-x-x-x----------|
Bm
       Bm       
  E
        E        
 |---7-7-7-7-7-7-7-7----|---7-7-7-7-7-7-7-7----|
B
        B        
 |---7-7-7-7-7-7-7-7----|---7-7-7-7-7-7-7-7----|
G
        G        
 |---7-7-7-7-7-7-7-7----|---7-7-7-7-7-7-7-7----|
D
        D        
 |---9-9-9-9-9-9-9-9----|---9-9-9-9-9-9-9-9----|
A
        A        
 |---9-9-9-9-9-9-9-9----|---9-9-9-9-9-9-9-9----|
E
        E        
 |---7-7-7-7-7-7-7-7----|---7-7-7-7-7-7-7-7----|
Bm
       Bm       
   A
        A        
E
        E        
 |---7-7-7-7-7-7-7-7----|---5~------|
B
        B        
 |---7-7-7-7-7-7-7-7----|---5~------|
G
        G        
 |---7-7-7-7-7-7-7-7----|---6~------|
D
        D        
 |---9-9-9-9-9-9-9-9----|---7~------|
A
        A        
 |---9-9-9-9-9-9-9-9----|---7~------|
E
        E        
 |---7-7-7-7-7-7-7-7----|---5~------|
Arpegio de la Intro: Bm
       Bm       
  F#m
       F#m       
  E
        E        
 |----------------------|-----------------------|
B
        B        
 |----------------------|-----------------------|
G
        G        
 |-----------7----------|-----------9-----------|
D
        D        
 |-----9-------9--------|-----7-------7---------|
A
        A        
 |---9---9-------9------|---9---9-------9-------|
E
        E        
 |----------------------|-----------------------|
Em
       Em       
   G
        G        
E
        E        
 |----------------------|-----------------------|
B
        B        
 |----------------------|-----------------------|
G
        G        
 |-----------9----------|-------------12--------|
D
        D        
 |-----9-------9--------|------12-------12------|
A
        A        
 |---7---7-------7------|---10----10------10----|
E
        E        
 |----------------------|-----------------------|
Bm
       Bm       
  F#m
       F#m       
  E
        E        
 |----------------------|-----------------------|
B
        B        
 |----------------------|-----------------------|
G
        G        
 |-----------7----------|-----------9-----------|
D
        D        
 |-----9-------9--------|-----7-------7---------|
A
        A        
 |---9---9-------9------|---9---9-------9-------|
E
        E        
 |----------------------|-----------------------|
Em
       Em       
   G
        G        
E
        E        
 |----------------------|-----------------------|
B
        B        
 |----------------------|-----------------------|
G
        G        
 |-----------9----------|-------------12--------|
D
        D        
 |-----9-------9--------|------12---------------|
A
        A        
 |---7---7-------7------|---10----10------------|
E
        E        
 |----------------------|-----------------------|
Verso 1(Con los mismos acordes, el arpegio lleva pequeñas modificaciones) Te puedes vender  C
        C        
ualquier oferta es buena SI
       SI       
 quieres poder Que fácil es  Ab
       Ab       
rir tanto la boca para opinar Y si te piensas echar atrás Tienes muchas huellas que borrar Puente (Con distorsión)  B
        B        
5  D
        D        
5  G
        G        
5  B
        B        
5  D
        D        
éjame, que yo no tengo la culpa de verte caer  D
        D        
5  G
        G        
5 Si yo no tengo la culpa de verte caer Puente  B
        B        
5  B
        B        
5 E
        E        
 |-----------------|-----------------|
B
        B        
 |-----------------|-----------------|
G
        G        
 |---4~------------|---4~------------|
D
        D        
 |---4~------------|---4~------------|
A
        A        
 |---2~------------|---2~------------|
E
        E        
 |-----------------|-----------------|
 D
        D        
5  G
        G        
5 E
        E        
 |-----------------|-----------------|
B
        B        
 |-----------------|-----------------|
G
        G        
 |---7~------------|-----------------|
D
        D        
 |---7~------------|---5~------------|
A
        A        
 |---5~------------|---5~------------|
E
        E        
 |-----------------|---3~------------|
 B
        B        
5  B
        B        
5 E
        E        
 |-----------------|-----------------|
B
        B        
 |-----------------|-----------------|
G
        G        
 |---4~------------|---4~------------|
D
        D        
 |---4~------------|---4~------------|
A
        A        
 |---2~------------|---2~------------|
E
        E        
 |-----------------|-----------------|
 D
        D        
5  G
        G        
5 E
        E        
 |-----------------|------------------|
B
        B        
 |-----------------|------------------|
G
        G        
 |---7~------------|------------------|
D
        D        
 |---7~------------|---5~-------------|
A
        A        
 |---5~------------|---5~-------------|
E
        E        
 |-----------------|---3~-------------|
Como el Intro: Bm
       Bm       
   G
        G        
E
        E        
 |---7-7-7-7-7-7-7-7----|---3-3-3-3-3----------|
B
        B        
 |---7-7-7-7-7-7-7-7----|---3-3-3-3-3----------|
G
        G        
 |---7-7-7-7-7-7-7-7----|---0-0-0-0-0----------|
D
        D        
 |---9-9-9-9-9-9-9-9----|---x-x-x-x-x----------|
A
        A        
 |---9-9-9-9-9-9-9-9----|---x-x-x-x-x----------|
E
        E        
 |---7-7-7-7-7-7-7-7----|---x-x-x-x-x----------|
Bm
       Bm       
  E
        E        
 |---7-7-7-7-7-7-7-7----|---7-7-7-7-7-7-7-7----|
B
        B        
 |---7-7-7-7-7-7-7-7----|---7-7-7-7-7-7-7-7----|
G
        G        
 |---7-7-7-7-7-7-7-7----|---7-7-7-7-7-7-7-7----|
D
        D        
 |---9-9-9-9-9-9-9-9----|---9-9-9-9-9-9-9-9----|
A
        A        
 |---9-9-9-9-9-9-9-9----|---9-9-9-9-9-9-9-9----|
E
        E        
 |---7-7-7-7-7-7-7-7----|---7-7-7-7-7-7-7-7----|
Bm
       Bm       
   A
        A        
E
        E        
 |---7-7-7-7-7-7-7-7----|---5~------|
B
        B        
 |---7-7-7-7-7-7-7-7----|---5~------|
G
        G        
 |---7-7-7-7-7-7-7-7----|---6~------|
D
        D        
 |---9-9-9-9-9-9-9-9----|---7~------|
A
        A        
 |---9-9-9-9-9-9-9-9----|---7~------|
E
        E        
 |---7-7-7-7-7-7-7-7----|---5~------|
Verso 2 (Con el arpegio del Intro) Bm
       Bm       
 F#m
       F#m       
 Em
       Em       
 G
        G        
  Pierdes la fe  C
        C        
ualquier esperanza es vana Y no se que creer Pepepepepero olvídame que nadie te ha llamado Y ya estas otra vez Puente  B
        B        
5  D
        D        
5  G
        G        
5  B
        B        
5  D
        D        
éjame, que yo no tengo la culpa de verte caer  D
        D        
5  G
        G        
5 Si yo no tengo la culpa de verte que Estribillo  E
        E        
ntre dos tierras estas Y no dejas aire que respirar  E
        E        
ntre dos tierras estas Y no dejas aire que respirar Estribillo  F
        F        
 Cm
       Cm       
Gm
       Gm       
  E
        E        
 |--1--1--1------3--3--3-----|----3--3---------3--3-----|
B
        B        
 |--1---1---1----4----4--4---|------3--3---------3--3---|
G
        G        
 |--2---------2--5---------5-|--3--------3--3---------3-|
D
        D        
 |--3------------5-----------|--5-----------5-----------|
A
        A        
 |--3------------------------|--5-----------5-----------|
E
        E        
 |--1------------------------|--------------------------|
 Cm
       Cm       
Gm
       Gm       
  E
        E        
 |--3--3--3------3--3--3-----|----3--3---------3--3-----|
B
        B        
 |--4---4---4----4----4--4---|------3--3---------3--3---|
G
        G        
 |--5---------5--5---------5-|--3--------3--3---------3-|
D
        D        
 |--5------------5-----------|--5-----------5-----------|
A
        A        
 |---------------------------|--5-----------5-----------|
E
        E        
 |---------------------------|--------------------------|
 F
        F        
 Cm
       Cm       
Gm
       Gm       
  E
        E        
 |--1--1--1------3--3--3-----|----3--3---------3--3-----|
B
        B        
 |--1---1---1----4----4--4---|------3--3---------3--3---|
G
        G        
 |--2---------2--5---------5-|--3--------3--3---------3-|
D
        D        
 |--3------------5-----------|--5-----------5-----------|
A
        A        
 |--3------------------------|--5-----------5-----------|
E
        E        
 |--1------------------------|--------------------------|
 Cm
       Cm       
 G
        G        
E
        E        
 |--3--3--3------3--3--3-----|--3-3-3-3-3-3-3-3---|
B
        B        
 |--4---4---4----4----4--4---|--3-3-3-3-3-3-3-3---|
G
        G        
 |--5---------5--5---------5-|--4-4-4-4-4-4-4-4---|
D
        D        
 |--5------------5-----------|--5-5-5-5-5-5-5-5---|
A
        A        
 |---------------------------|--5-5-5-5-5-5-5-5---|
E
        E        
 |---------------------------|--3-3-3-3-3-3-3-3---|
 G
        G        
E
        E        
 |--3-3-3-3-3-3-3-3---|
B
        B        
 |--3-3-3-3-3-3-3-3---|
G
        G        
 |--4-4-4-4-4-4-4-4---|
D
        D        
 |--5-5-5-5-5-5-5-5---|
A
        A        
 |--5-5-5-5-5-5-5-5---|
E
        E        
 |--3-3-3-3-3-3-3-3---|
Verso 3 (Con los mismos acordes, el arpegio lleva pequeñas modificaciones) Bm
       Bm       
 F#m
       F#m       
 Em
       Em       
 G
        G        
   D
        D        
éjalo ya No seas membrillo y permite pasar Y si no piensas echar atrás Tienes mucho barro que tragar Puente  B
        B        
5  D
        D        
5  G
        G        
5  B
        B        
5  D
        D        
éjame, que yo no tengo la culpa de verte caer  D
        D        
5  G
        G        
5 Si yo no tengo la culpa de verte que Estribillo (igual)  E
        E        
ntre dos tierras estas Y no dejas aire que respirar  E
        E        
ntre dos tierras estas Y no dejas aire que respirar Solo e|-------------|-------------|---------------------------| B|-------------|-------------|-----------8-7h8p7---------| G|-------7-----|-------9-----|-------9-----------9---7---| D|---9-----9---|---7-----7---|---7-----------------9---9-| A|-9---9-----9-|-9---9-----9-|-9---9---------------------| E|-------------|-------------|---------------------------| e|-------------------------|---------------------------| B|-------------------------|---------------------------| G|-------7---7-9b11r9p7-9~-|-----6-9--7-6-7-6h7p6------| D|---9-----9---------------|---7------------------9----| A|-9---9-------------------|-9----------------------9~-| E|-------------------------|---------------------------| e|-----------------|-----------------| B|-----------------|-----------------| G|-----------------|-----------------| D|-9-9-9-9-9-9-9-9-|-7-7-7-7-7-7-7-7-| A|-9-9-9-9-9-9-9-9-|-7-7-7-7-7-7-7-7-| E|-7-7-7-7-7-7-7-7-|-5-5-5-5-5-5-5-5-| -----------------|-----------------| -----------------|-----------------| -----------------|-----------------| -5-5-5-5-4-4-4-4-|-9-9-9-9-9-9-9-9-| -5-5-5-5-4-4-4-4-|-9-9-9-9-9-9-9-9-| -3-3-3-3-2-2-2-2-|-7-7-7-7-7-7-7-7-| e|-------------------------|-----------------| B|-------------------------|-----------------| G|-11-11-11-11-11-11-11-11-|-7-7-7-7-7-7-7-7-| D|-11-11-11-11-11-11-11-11-|-7-7-7-7-7-7-7-7-| A|-9--9--9--9--9--9--9--9--|-5-5-5-5-5-5-5-5-| E|-------------------------|-----------------| -------------------------------------------| -------------------------------------------| -12-12-12-12-12-12-------------------------| -12-12-12-12-12-12-----12----11----9----7~-| -10-10-10-10-10-10--10----10----10---10----| -------------------------------------------| e|-------------------------------------------| B|-------------------------------------------| G|-------------------------------------------| D|-9-9-9-5-9-9-9-9-7-9-9-9-9-7-9-9-9-9-7-9-9-| A|-9-9-9-7-9-9-9-9-7-9-9-9-9-7-9-9-9-9-7-9-9-| E|-7-7-7-5-7-7-7-7-5-7-7-7-7-5-7-7-7-7-5-7-7-| e|-----------10-------|-----------10-9----|----------10-----| B|-----12-------12----|-----10---------10-|----12-------12~-| G|-/11----11-------11-|-/11----11---------|-11----11--------| D|--------------------|-------------------|-----------------| A|--------------------|-------------------|-----------------| E|--------------------|-------------------|-----------------| e|------------------------------|-------------------------| B|-10-8-7-----------------------|-------------------------| G|--------9-7-6-----------------|-------7---7-9b11r9p7-9~-| D|--------------9-7-------------|---9-----9---------------| A|------------------10-9-7------|-9---9-------------------| E|-------------------------10-7-|-------------------------| ---------------------------| ---------------------------| -----6-9--7-6-7-6h7p6------| ---7------------------9----| -9----------------------9~-| ---------------------------| e|-------------------------|---------------------------| B|-------------------------|---------------------------| G|-------7---7-9b11r9p7-9~-|-----6-9--7-6-7-6h7p6------| D|---9-----9---------------|---7------------------9----| A|-9---9-------------------|-9----------------------9~-| E|-------------------------|---------------------------| e|-------------------------------------------| B|-------------------------------------------| G|-------------------------------------------| D|-9-9-9-5-9-9-9-9-7-9-9-9-9-7-9-9-9-9-7-9-9-| A|-9-9-9-7-9-9-9-9-7-9-9-9-9-7-9-9-9-9-7-9-9-| E|-7-7-7-5-7-7-7-7-5-7-7-7-7-5-7-7-7-7-5-7-7-| e|---------------------------15----15----14-| B|-----15-17b19r17p15-----------------------| G|-/16----------------16--15----15----15----| esta parte x2 D|------------------------------------------| A|------------------------------------------| E|------------------------------------------| e|-----------------------|-----------------------------| B|-----------------------|-----------------------------| G|---7-9-9b11r9p7--------|----7-9-9b11r9p7-------------| D|-9--------------9-8s4~-|-/9--------------9-8--4-4-4--| A|-----------------------|----------------------4-4-4--| E|-----------------------|----------------------2-2-2--| Se queda en F#m
       F#m       
  Puente  B
        B        
5  D
        D        
5  G
        G        
5  B
        B        
5  D
        D        
éjame, que yo no tengo la culpa de verte caer  D
        D        
5  G
        G        
5 Si yo no tengo la culpa de verte que Estribillo  F
        F        
5  C
        C        
5  G
        G        
5  E
        E        
ntre dos tierras estas  C
        C        
5  G
        G        
5 Y no dejas aire que respirar  F
        F        
5  C
        C        
5  G
        G        
5  E
        E        
ntre dos tierras estas  C
        C        
5  G
        G        
5 Y no dejas aire que respirar  G
        G        
E
        E        
 |--3-3-3-3-3-3-3-3-3-3-3-3-3-3-3--|
B
        B        
 |--3-3-3-3-3-3-3-3-3-3-3-3-3-3-3--|
G
        G        
 |--4-4-4-4-4-4-4-4-4-4-4-4-4-4-4--|
D
        D        
 |--5-5-5-5-5-5-5-5-5-5-5-5-5-5-5--|
A
        A        
 |--5-5-5-5-5-5-5-5-5-5-5-5-5-5-5--|
E
        E        
 |--3-3-3-3-3-3-3-3-3-3-3-3-3-3-3--|
Bm
       Bm       
  E
        E        
 |---7~----|
B
        B        
 |---7~----|
G
        G        
 |---7~----|
D
        D        
 |---9~----|
A
        A        
 |---9~----|
E
        E        
 |---7~----|


Héroes del Silencio

Este fichero es trabajo propio de su transcriptor y representa su interpretación personal de la canción. El material contenido en esta página es para exclusivo uso privado, por lo que se prohibe su reproducción o retransmisión, así como su uso para fines comerciales.



Buscar canción en YouTube Buscar cover en YouTube


Más canciones