El Camino del Exceso (BAJ) (3)


                                                                                
G||------------------|------------------|------------------|------------------| 
D||------------------|------------------|------------------|------------------| 
A||------------------|------------------|------------------|------------------| 
E||------------------|------------------|------------------|------------------| 
 
 
                                                                
--------------------------------|-----------------------------| 
--------------------------------|-----------------------------| 
--------------------------------|--------------------0--------| 
--0-0-0-0--3-0-0-3-0-0-0--3-0-0-|--3-0-0-0--3-0-0-3-----3--2--| 
 
 
                                                                
--------------------------------|-----------------------------| 
--------------------------------|-----------------------------| 
--------------------------------|--------------------0--------| 
--0-0-0-0--3-0-0-3-0-0-0--3-0-0-|--3-0-0-0--3-0-0-3-----3--2--| 
 
 
                                                                
------------------------------|-------------------------------| 
------------------------------|-------------------------------| 
--2-------------3-------------|--2-------------0--------------| 
--0-0-0-0--0--0-0-0-0-0--0--0-|--0-0-0-0--0--0-2-3-2-2-0--2-2-| 
 
 
                                                                
------------------------------|-------------------------------| 
------------------------------|-------------------------------| 
--2-------------3-------------|--2-------------0--------------| 
--0-0-0-0--0--0-0-0-0-0--0--0-|--0-0-0-0--0--0-2-3-2-2-0--2-2-| 
 
 
                                                                
------------------------------|-------------------------------| 
------------------------------|-------------------------------| 
--2-------------3-------------|--2-------------0--------------| 
--0-0-0-0--0--0-0-0-0-0--0--0-|--0-0-0-0--0--0-2-3-2-2-0--2-2-| 
 
 
                                                                
------------------------------|-------------------------------| 
------------------------------|-------------------------------| 
--2-------------3-------------|--2-------------0--------------| 
--0-0-0-0--0--0-0-0-0-0--0--0-|--0-0-0-0--0--0-2-3-2-2-0--2-2-| 
 
 
                                                                
--------------------------------|-----------------------------| 
--------------------------------|-----------------------------| 
--------------------------------|--------------------0--------| 
--0-0-0-0--3-0-0-3-0-0-0--3-0-0-|--3-0-0-0--3-0-0-3-----3--2--| 
 
 
                                                                
--------------------------------|-----------------------------| 
--------------------------------|-----------------------------| 
--------------------------------|--------------------0--------| 
--0-0-0-0--3-0-0-3-0-0-0--3-0-0-|--3-0-0-0--3-0-0-3-----3--2--| 
 
 
                                                                
------------------------------|-------------------------------| 
------------------------------|-------------------------------| 
--2-------------3-------------|--2-------------0--------------| 
--0-0-0-0--0--0-0-0-0-0--0--0-|--0-0-0-0--0--0-2-3-2-2-0--2-2-| 
 
 
                                                                
------------------------------|-------------------------------| 
------------------------------|-------------------------------| 
--2-------------3-------------|--2-------------0--------------| 
--0-0-0-0--0--0-0-0-0-0--0--0-|--0-0-0-0--0--0-2-3-2-2-0--2-2-| 
 
 
                                                                
------------------------------|-------------------------------| 
------------------------------|-------------------------------| 
--2-------------3-------------|--2-------------0--------------| 
--0-0-0-0--0--0-0-0-0-0--0--0-|--0-0-0-0--0--0-2-3-2-2-0--2-2-| 
 
 
                                                                
------------------------------|-------------------------------| 
------------------------------|-------------------------------| 
--2-------------3-------------|--2-------------0--------------| 
--0-0-0-0--0--0-0-0-0-0--0--0-|--0-0-0-0--0--0-2-3-2-2-0--2-2-| 
 
 
                                                                        
------------------|--------------------------|------------------------| 
------------------|--------------------------|--0--0--0--0------------| 
------------------|--3--3--2--0--------2--3--|------------------------| 
------------------|--------------3--3--------|------------------0--2--| 
 
 
                                                                              
--------------------------|----------------------|--0-----------------------| 
--------------------------|----------------------|--------------------------| 
--------------------------|----------3--3--2--0--|-----------------0--2--3--| 
--3--3--3--3--3--3--3--3--|----------------------|--3--3--3--3--3-----------| 
 
 
                                                       
--------------------------|--------------------------| 
--0--0--0--0--------------|--------------------------| 
--------------3--3--3--3--|--------------------------| 
--------------------------|--3--3--3--3--3--3--3--3--| 
 
 
                                                                
--------------------------------|-----------------------------| 
--------------------------------|-----------------------------| 
--------------------------------|--------------------0--------| 
--0-0-0-0--3-0-0-3-0-0-0--3-0-0-|--3-0-0-0--3-0-0-3-----3--2--| 
 
 
                                                                
--------------------------------|-----------------------------| 
--------------------------------|-----------------------------| 
--------------------------------|--------------------0--------| 
--0-0-0-0--3-0-0-3-0-0-0--3-0-0-|--3-0-0-0--3-0-0-3-----3--2--| 
 
 
                                                                
--------------------------------|-----------------------------| 
--------------------------------|-----------------------------| 
--------------------------------|--------------------0--------| 
--0-0-0-0--3-0-0-3-0-0-0--3-0-0-|--3-0-0-0--3-0-0-3-----3--2--| 
 
 
                                                                
--------------------------------|-----------------------------| 
--------------------------------|-----------------------------| 
--------------------------------|--------------------0--------| 
--0-0-0-0--3-0-0-3-0-0-0--3-0-0-|--3-0-0-0--3-0-0-3-----3--2--| 
 
 
                                                                
------------------------------|-------------------------------| 
------------------------------|-------------------------------| 
--2-------------3-------------|--2-------------0--------------| 
--0-0-0-0--0--0-0-0-0-0--0--0-|--0-0-0-0--0--0-2-3-2-2-0--2-2-| 
 
 
                                                                
------------------------------|-------------------------------| 
------------------------------|-------------------------------| 
--2-------------3-------------|--2-------------0--------------| 
--0-0-0-0--0--0-0-0-0-0--0--0-|--0-0-0-0--0--0-2-3-2-2-0--2-2-| 
 
 
                                                                
------------------------------|-------------------------------| 
------------------------------|-------------------------------| 
--2-------------3-------------|--2-------------0--------------| 
--0-0-0-0--0--0-0-0-0-0--0--0-|--0-0-0-0--0--0-2-3-2-2-0--2-2-| 
 
 
                                                                
------------------------------|-------------------------------| 
------------------------------|-------------------------------| 
--2-------------3-------------|--2-------------0--------------| 
--0-0-0-0--0--0-0-0-0-0--0--0-|--0-0-0-0--0--0-2-3-2-2-0--2-2-| 
 
 
                                                                        
------------------|--------------------------|------------------------| 
------------------|--------------------------|--0--0--0--0------------| 
------------------|--3--3--2--0--------2--3--|------------------------| 
------------------|--------------3--3--------|------------------0--2--| 
 
 
                                                                              
--------------------------|----------------------|--0-----------------------| 
--------------------------|----------------------|--------------------------| 
--------------------------|----------3--3--2--0--|-----------------0--2--3--| 
--3--3--3--3--3--3--3--3--|----------------------|--3--3--3--3--3-----------| 
 
 
                                                       
--------------------------|--------------------------| 
--0--0--0--0--------------|--------------------------| 
--------------3--3--3--3--|--------------------------| 
--------------------------|--3--3--3--3--3--3--3--3--| 
 
 
                                                                
--------------------------------|-----------------------------| 
--------------------------------|-----------------------------| 
--------------------------------|--------------------0--------| 
--0-0-0-0--3-0-0-3-0-0-0--3-0-0-|--3-0-0-0--3-0-0-3-----3--2--| 
 
 
                                                                
--------------------------------|-----------------------------| 
--------------------------------|-----------------------------| 
--------------------------------|--------------------0--------| 
--0-0-0-0--3-0-0-3-0-0-0--3-0-0-|--3-0-0-0--3-0-0-3-----3--2--| 
 
 
                                                                
--------------------------------|-----------------------------| 
--------------------------------|-----------------------------| 
--------------------------------|--------------------0--------| 
--0-0-0-0--3-0-0-3-0-0-0--3-0-0-|--3-0-0-0--3-0-0-3-----3--2--| 
 
 
                                                                
--------------------------------|-----------------------------| 
--------------------------------|-----------------------------| 
--------------------------------|--------------------0--------| 
--0-0-0-0--3-0-0-3-0-0-0--3-0-0-|--3-0-0-0--3-0-0-3-----3--2--| 
 
 
                                                                
------------------------------|-------------------------------| 
------------------------------|-------------------------------| 
--2-------------3-------------|--2-------------0--------------| 
--0-0-0-0--0--0-0-0-0-0--0--0-|--0-0-0-0--0--0-2-3-2-2-0--2-2-| 
 
 
                                                                
------------------------------|-------------------------------| 
------------------------------|-------------------------------| 
--2-------------3-------------|--2-------------0--------------| 
--0-0-0-0--0--0-0-0-0-0--0--0-|--0-0-0-0--0--0-2-3-2-2-0--2-2-| 
 
 
                                                                 
------------------------------|--------------------------------| 
----------------3-------------|--2-------------3-0---------0---| 
--3-0-0-0--0--0-0-0-0-0--0--0-|--0-0-0-0--0--0-3---3-2-3-2---2-| 
--5---------------------------|--------------------------------| 
 
 
                                                                
------------------------------|-------------------------------| 
------------------------------|-------------------------------| 
--2-------------3-------------|--2-------------0--------------| 
--0-0-0-0--0--0-0-0-0-0--0--0-|--0-0-0-0--0--0-2-3-2-2-0--2-2-| 
 
 
                                                                        
-------------------|--4---------------------|-------------------------| 
--0----------------|--0---------------------|-------------------------| 
--0----------------|------------------------|--0--0--0--0----0-----0--| 
-------------------|--3--3--3--3------3--3--|-------------------0-----| 
 
 
                                                                         
--2----------------------|--4----------------------|-------------------| 
-------------------------|--0----------------------|--4----------------| 
--4----------------------|-------------------------|--0----------------| 
--2--2--2--2----0--2--2--|--3--3--3--3----3--3--3--|-------------------| 
 
 
                                                                             
--6---------------------|------------------------------|-------------------| 
------------------------|------------------------------|--0----------------| 
--7--0----0--0--0----0--|------------------------------|--0----------------| 
--5---------------------|--3--3--3--3--3-3-3-3-3-3-3-3-|-------------------| 
 
 
                                                                              
--4---------------------|-------------------------|--2----------------------| 
--0---------------------|-------------------------|-------------------------| 
------------------------|--0--0--0--0----0-----0--|--4----------------------| 
--3--3--3--3------3--3--|-------------------0-----|--2--2--2--2----0--2--2--| 
 
 
                                                                        
--4----------------------|-------------------|------------------------| 
--0----------------------|--4----------------|------------------------| 
-------------------------|--0----------------|--3--3----3-3-3--3------| 
--3--3--3--3----3--3--3--|-------------------|------------------------| 
 
 
                                                         
----------------------|--------------------------------| 
----------------------|--------------------------------| 
-----------------0----|--------------------------------| 
--0----2----3---------|--0-0-0-0--3-0-0-3-0-0-0--3-0-0-| 
 
 
                                                                
-----------------------------|--------------------------------| 
-----------------------------|--------------------------------| 
--------------------0--------|--------------------------------| 
--3-0-0-0--3-0-0-3-----3--2--|--0-0-0-0--3-0-0-3-0-0-0--3-0-0-| 
 
 
                                                                
-----------------------------|--------------------------------| 
-----------------------------|--------------------------------| 
--------------------0--------|--------------------------------| 
--3-0-0-0--3-0-0-3-----3--2--|--0-0-0-0--3-0-0-3-0-0-0--3-0-0-| 
 
 
                                                                
-----------------------------|--------------------------------| 
-----------------------------|--------------------------------| 
--------------------0--------|--------------------------------| 
--3-0-0-0--3-0-0-3-----3--2--|--0-0-0-0--3-0-0-3-0-0-0--3-0-0-| 
 
 
                                                              
-----------------------------|------------------------------| 
-----------------------------|------------------------------| 
--------------------0--------|------------------------------| 
--3-0-0-0--3-0-0-3-----3--2--|--0-0-0-0--0--0-0-0-0-0--0--0-| 
 
 
                                                               
------------------------------|------------------------------| 
------------------------------|------------------------------| 
------------------------------|------------------------------| 
--0-0-0-0--0--0-2-3-2-2-0--2--|--0-0-0-0--0--0-0-0-0-0--0--0-| 
 
 
                                                               
------------------------------|------------------------------| 
------------------------------|------------------------------| 
------------------------------|------------------------------| 
--0-0-0-0--0--0-2-3-2-2-0--2--|--0-0-0-0--0--0-0-0-0-0--0--0-| 
 
 
                                                               
------------------------------|------------------------------| 
------------------------------|------------------------------| 
------------------------------|------------------------------| 
--0-0-0-0--0--0-2-3-2-2-0--2--|--0-0-0-0--0--0-0-0-0-0--0--0-| 
 
 
                                                               
------------------------------|------------------------------| 
------------------------------|------------------------------| 
------------------------------|--2-------------3-------------| 
--0-0-0-0--0--0-2-3-2-2-0--2--|--0-0-0-0--0--0-0-0-0-0--0--0-| 
 
 
                                                                
-------------------------------|------------------------------| 
-------------------------------|------------------------------| 
--2-------------0--------------|--2-------------3-------------| 
--0-0-0-0--0--0-2-3-2-2-0--2-2-|--0-0-0-0--0--0-0-0-0-0--0--0-| 
 
 
                                                                
-------------------------------|------------------------------| 
-------------------------------|----------------3-------------| 
--2-------------0--------------|--3-0-0-0--0--0-0-0-0-0--0--0-| 
--0-0-0-0--0--0-2-3-2-2-0--2-2-|--5---------------------------| 
 
 
                                                                 
--------------------------------|------------------------------| 
--2-------------3-0---------0---|------------------------------| 
--0-0-0-0--0--0-3---3-2-3-2---2-|--2-------------3-------------| 
--------------------------------|--0-0-0-0--0--0-0-0-0-0--0--0-| 
 
 
                                                                              
-------------------------------|-------------------|--4---------------------| 
-------------------------------|--0----------------|--0---------------------| 
--2-------------0--------------|--0----------------|------------------------| 
--0-0-0-0--0--0-2-3-2-2-0--2-2-|-------------------|--3--3--3--3------3--3--| 
 
 
                                                                               
-------------------------|--2----------------------|--4----------------------| 
-------------------------|-------------------------|--0----------------------| 
--0--0--0--0----0-----0--|--4----------------------|-------------------------| 
-------------------0-----|--2--2--2--2----0--2--2--|--3--3--3--3----3--3--3--| 
 
 
                                                                             
-------------------|--6---------------------|------------------------------| 
--4----------------|------------------------|------------------------------| 
--0----------------|--7--0----0--0--0----0--|------------------------------| 
-------------------|--5---------------------|--3--3--3--3--3-3-3-3-3-3-3-3-| 
 
 
                                                                        
-------------------|--4---------------------|-------------------------| 
--0----------------|--0---------------------|-------------------------| 
--0----------------|------------------------|--0--0--0--0----0-----0--| 
-------------------|--3--3--3--3------3--3--|-------------------0-----| 
 
 
                                                                         
--2----------------------|--4----------------------|-------------------| 
-------------------------|--0----------------------|--4----------------| 
--4----------------------|-------------------------|--0----------------| 
--2--2--2--2----0--2--2--|--3--3--3--3----3--3--3--|-------------------| 
 
 
                                                                                
------------------------|----------------------|------------------------------| 
------------------------|----------------------|------------------------------| 
--3--3----3-3-3--3------|-----------------0----|--0-0-0-0--0--0-0-0-0-0--0--0-| 
------------------------|--0----2----3---------|------------------------------| 
 
 
                                                              
-----------------------------|------------------------------| 
-----------------------------|------------------------------| 
--0-0-0-0--0--0-3--2--0--2-3-|--0-0-0-0--0--0-0-0-0-0--0--0-| 
-----------------------------|------------------------------| 
 
 
                                                              
-----------------------------|------------------------------| 
-----------------------------|------------------------------| 
--0-0-0-0--0--0-3--2--0--2-3-|------------------------------| 
-----------------------------|--0-0-0-0--0--0-0-0-0-0--0--0-| 
 
 
                                                                
-------------------------------|------------------------------| 
-------------------------------|------------------------------| 
-------------------------------|--0-0-0-0--0--0-0-0-0-0--0--0-| 
--0-0-0-0--0--0-2-3-2-2-0--2-0-|------------------------------| 
 
 
                                                              
-----------------------------|------------------------------| 
-----------------------------|------------------------------| 
--0-0-0-0--0--0-3--2--0--2-3-|------------------------------| 
-----------------------------|--0-0-0-0--0--0-0-0-0-0--0--0-| 
 
 
                                                                               
-------------------------------|------------------|--------------------------| 
-------------------------------|------------------|--------------------------| 
-------------------------------|------------------|--0--0--0--0--0--0--0--0--| 
--0-0-0-0--0--0-2-3-2-2-0--2-0-|------------------|--------------------------| 
 
 
                                                               
------------------|------------0----4----|-------------------| 
------------------|--2----4--------------|--2----------------| 
------------------|-----------------2----|-------------------| 
------------------|--0----2----3---------|--0----------------|

Héroes del Silencio

Este fichero es trabajo propio de su transcriptor y representa su interpretación personal de la canción. El material contenido en esta página es para exclusivo uso privado, por lo que se prohibe su reproducción o retransmisión, así como su uso para fines comerciales.



Buscar canción en YouTube Buscar cover en YouTube


Más canciones