Despertar (TAB) (2)


Intro: (Guitarra electrica con coro y delay)

BUENO LO PROMETIDO
       DO       
 ES D
        D        
EUDA A
        A        
QUI E
        E        
STA E
        E        
L TAB C
        C        
OMPLETO D
        D        
E
        E        
STA C
        C        
ANCIÓN E||-----0-(0)-0---------|-----0-(0)-0---------|| B||-----0-(0)-0------0--|-----0-(0)-0------0--|| G||-----1-(1)-1---1--1--|-----1-(1)-1---1--1--|| x1 D||-----2-(2)-2---2--2--|-----2-(2)-2---2--2--|| A||-2-2---------2-2-----|-2-2---------2-2-----|| E||-0-0---------0-0-----|-0-0---------0-0-----||  A
        A        
E||---------------------------|------------------------------|| B||------2--------0h2-(2)-----|------2--------0h2-(2)--------|| G||---------2-------------2---|---------2-------------2------|| X2 D||-----------2-------------2-|-----------2-------------2----|| A||--0------------------------|-0----------------------------|| E||---------------------------|------------------------------|| Dmaj7
      Dmaj7      
/F#
       F#       
  E||----------------------------|----------------------------|| B||----2-(2)-----0h2-2-(2)-2---|----2-(2)-----0h2-2-(2)-2---|| G||----------2---------------2-|----------2---------------2-|| D||-0----------4---------------|-0----------4---------------|| A||----------------------------|----------------------------|| E||----------------------------|----------------------------|| Dmaj7
      Dmaj7      
sus2/F#
       F#       
  E||----------------------0---|| B||---2-(2)-----0h2-2--------|| La segunda vez termina así G||---------2---------2------|| D||-0---------4--------------|| A||--------------------------|| E||--------------------------|| Verso I  A
        A        
||----5-----9---7--7p5-----|-----5------9---7---7p5---|| ||------5-----5---------5--|--------5-----5---------5-|| ||--------6----------------|----------6---------------|| ||-------------------------|--------------------------|| ||-0-----------------------|-0------------------------|| ||-------------------------|--------------------------||  D
        D        
|------0--------5---3--2----|----0-------5---3--2-----|| |---------3-------3-------3-|--------3-----3------3---|| |------------2--------------|-----------2-------------|| |-0-------------------------|-0-----------------------|| |---------------------------|-------------------------|| |---------------------------|-------------------------||  A
        A        
Asus
      Asus      
2 ||----0--------------------|-----0-----------0-------|| ||----------2---0--0-(0)-0-|---0-----0---0-------0---|| ||------------2-2--2-(2)-2-|-----------2---2-------2-|| ||--------------2--2-(2)-2-|-------------------------|| ||-0------------0--0-(0)-0-|-0-----------------------|| ||-------------------------|-------------------------||  D
        D        
Dsus
       Dsus      
2  D
        D        
Dsus
       Dsus      
2 ||--------5--------5---------5-|-----5-------------5--------|| ||-----7-----7---5---------5---|---7-------7---5------------|| ||-------------7--------7------|-------------7---7----------|| ||0----------------------------|-0--------------------------|| ||-----------------------------|----------------------------|| ||-----------------------------|----------------------------||  C
        C        
oro I, II C#m
       C#m       
  F#m
       F#m       
  C#m
       C#m       
  ||-------------------------|--------9------------4--------|| ||------------5----4-------|-----10---10-------5---5------|| ||-----6-------------6-----|-/11---------11-6-------6----|| ||---6---6------6------6---|------------------------------|| ||-4-------4---------------|------------------------------|| ||-------------------------|------------------------------|| Dmaj7
      Dmaj7      
Dmaj7
      Dmaj7      
sus2 F#m
       F#m       
  C#m
       C#m       
  ||-------9--------12----------|-------9-------------4------|| ||----10----10-------10----10-|----10----10-------5----5---|| ||-11----------11-------11----|-11----------11-6--------6-|| ||----------------------------|----------------------------|| ||----------------------------|----------------------------|| ||----------------------------|----------------------------||  A
        A        
/D
        D        
   E
        E        
||-------------------|-----0-(0)-0---------|-----0-(0)-0----------|| ||----2----3---2-----|-----0-(0)-0------0--|-----0-(0)-0----------|| ||-2----2----2---2---|-----1-(1)-1---1--1--|-----1-(1)-1------1-1-|| ||-2------2--------2-|-----2-(2)-2---2--2--|-----2-(2)-2---2--2-2-|| ||-------------------|-2-2---------2-2-----|-2-2---------2-2--2-2-|| ||-------------------|-0-0---------0-0-----|-0-0---------0-0------||  A
        A        
||-----------------------|| ||-----2--------0h2------|| ||--------2----------2---|| ||----------2----------2-|| ||--0--------------------|| ||-----------------------|| Dmaj7
      Dmaj7      
/F#
       F#       
  ||----------------------|----------------------------|| ||----2--------0h2------|----2-(2)-----0h2-2-(2)-2---|| ||-------2----------2---|----------2---------------2-|| ||---------2----------2-|-0----------4---------------|| ||-0--------------------|----------------------------|| ||----------------------|----------------------------|| Dmaj7
      Dmaj7      
/F#
       F#       
  ||-----------------------0-|| ||----2-(2)-----0h2-2--2---|| ||----------2--------------|| ||-0----------4------------|| ||-------------------------|| ||-------------------------||  D/F#
      D/F#      
 D
        D        
||---------------------------|--------------------------|| ||----2-(2)-----3--2-(2)-----|-----3-(3)-----3---2-(2)--|| ||----------2---4--------2---|---2-------2-----2--------|| ||-0----------4------------4-|-0-----------0------------|| ||---------------------------|--------------------------|| ||---------------------------|--------------------------|| Verso II  A
        A        
||-----5--5------9---7---7p5---|-----5--5------9---7---7p5---|| ||---5-------5-----5---------5-|---5-------5-----5---------5-|| ||-------------6---------------|-------------6---------------|| ||-----------------------------|-----------------------------|| ||-0---------------------------|-0---------------------------|| ||-----------------------------|-----------------------------|| Dsus
       Dsus      
2 ||-----0-----------0-------|-----0-----------0---------|| ||---3-----3---3-------3---|---3-----3---3-------3-----|| ||-----------2---2-------2-|-----------2---2--------2--|| ||-0-----------------------|-0-------------------------|| ||-------------------------|---------------------------|| ||-------------------------|---------------------------||  A
        A        
||-----5------9---7--7p5---|-5--5-----9---7---7p5---|| ||---5---5------5--------5-|------5-----5---------5-|| ||---------6---------------|--------6---------------|| ||-------------------------|------------------------|| ||-0-----------------------|------------------------|| ||-------------------------|------------------------||  D
        D        
Dsus
       Dsus      
2  D
        D        
|-----5----------5------|-----5------10---------|| |---7----7---5------5---|---7----7------10------|| |----------7---7------7-|----------7-------11---|| |-0---------------------|-0---------------------|| |-----------------------|-----------------------|| |-----------------------|-----------------------||  C
        C        
ORO II [cont'd]  A
        A        
Dadd9
      Dadd9      
||----0-0---0-(0)-0-0-0-0-0-0-|---0-0---0-(0)-0-0-0--0-0-|| ||o---2-2---2-(2)-2-2-2-2-2-2-|---2-2---2-(2)-2-2-2/-7-7-|| ||--2-2-2-2-2-(2)-2-2-2-2-2-2-|-2-2-2-2-2-(2)-2-2-2/-7-7-|| ||--2-----2-------------------|-2-----2------------------|| ||o-0-----0-------------------|-0-----0------------------|| ||----------------------------|--------------------------|| |---0-0---0-(0)-0-0-0-0-0-0-|---0-0---0-(0)-0-0-0-0-0-0---|| |-7-7-7-7-7-(7)-7-7-7-7-7-7-|-7-7-7-7-7-(7)-7-7-7-7-7-7---|| |-7-7-7-7-7-(7)-7-7-7-7-7-7-|-7-7-7-7-7-(7)-7-7-7-7-7-7---|| |-0-----0-------------------|-0-----0---------------------|| |---------------------------|-----------------------------|| |---------------------------|-----------------------------||  G
        G        
uitar Solo: (ESTA
        A        
 MUY FA
       FA       
CIL) (B) (E) (F#) e||-----------------7-----------|---------------6----------------|| B||-4------4-5-7--7---7-5-4-----|-------4-5-7-----7--------------|| G||---4-6-------------------6-4-|-----4-------6-----6---9-8-6-8--|| D||-----------------------------|---6----------------------------|| A||-----------------------------|-7------------------------------|| E||-----------------------------|--------------------------------|| (B) (E) e||----------------7---------------|----------------------4---------|| B||-------4-5-7--7---7-5-4h5p4-----|-------5-4----------5---5-------|| G||--4-6-----------------------6-4-|-----4-----4------4-------4-----|| D||--------------------------------|---6-----------2----------------|| A||--------------------------------|-7------------------------------|| E||--------------------------------|--------------------------------|| NOTA: A
        A        
PARTIR D
        D        
E
        E        
 AQUÍ LA
       LA       
 ROLA
       LA       
 SE
        E        
 TRANSPORTA
        A        
 UN TONO A
        A        
RRIBA
        A        
 [F#] D#m
       D#m       
  G#m
       G#m       
  D#m
       D#m       
  ||-------------------------|--------11------------6------|| ||------------7----6-------|-----12----12-------7---7----|| ||------8-------------8----|-/13----------13-8-------8--|| ||----8---8-----8-------8--|-----------------------------|| ||-6--------6--------------|-----------------------------|| ||-------------------------|-----------------------------|| Emaj7
      Emaj7      
Emaj7
      Emaj7      
sus2 G#m
       G#m       
  D#m
       D#m       
  ||-------11--------14----------|-------11-------------6-------|| ||----12-----12-------12----12-|----12-----12-------7---7-----|| ||-13-----------13-------13----|-13-----------13-8-------8---|| ||-----------------------------|------------------------------|| ||-----------------------------|------------------------------|| ||-----------------------------|------------------------------||  B
        B        
/E
        E        
  F#
       F#       
  ||--------------------------|-----2-(2)-2---------|| ||----4-(4)---5---4-(4)-----|-----2-(2)-2------2--|| ||-4--------4---4-------4---|-----3-(3)-3---3--3--|| ||------------------------4-|-----4-(4)-4---4--4--|| ||--------------------------|-4-4---------4-4-----|| ||--------------------------|-2-2---------2-2-----|| 2.  B
        B        
/E
        E        
  ||-----2-(2)-2----------||----------------------------|| ||-----2-(2)-2----------||----4-(4)---7---5-(5)p4-----|| ||-----3-(3)-3------3-3-||-4--------4---4---------4---|| ||-----4-(4)-4---4--4-4-||----------------------------|| ||-4-4---------4-4--4-4-||----------------------------|| ||-2-2---------2-2------||----------------------------|| F#
       F#       
   B
        B        
||-----2-(2)-2---------|-----2-(2)-2----------|-^7--------|-(7)----*|| ||-----2-(2)-2------2--|-----2-(2)-2----------|-^7--------|-(7)----*|| ||-----3-(3)-3---3--3--|-----3-(3)-3------3-3-|-^8--------|-(8)----*|| ||-----4-(4)-4---4--4--|-----4-(4)-4---4--4-4-|-^9--------|-(9)----*|| ||-4-4---------4-4-----|-4-4---------4-4--4-4-|-^9--------|-(9)----*|| ||-2-2---------2-2-----|-2-2---------2-2------|-^7--------|-(7)----*|| LETRA
        A        
  Uh,uh.uh,uh Quién nos devora, Que una pesadilla me parte en dos? ¿Tanto odio encontró En la melodía que ahoga mi voz? Todo se olvida al despertar Una vez más Sólo puedo soñar Entre arena y espuma ¿Cómo puedo olvidar A
        A        
 alguien que un día me quiso ayudar? Si no sé perdonar El daño que has hecho a mi alrededor... Todo se olvida al despertar Una vez más Sólo puedo soñar Entre arena y espuma Entre arena y espuma... Todo se olvida al despertar Una vez más Sólo puedo soñar Entre arena y ... Todo se olvida al despertar Una vez más Sólo puedo soñar Entre arena y espuma.

Héroes del Silencio

Este fichero es trabajo propio de su transcriptor y representa su interpretación personal de la canción. El material contenido en esta página es para exclusivo uso privado, por lo que se prohibe su reproducción o retransmisión, así como su uso para fines comerciales.



Buscar canción en YouTube Buscar cover en YouTube


Más canciones