Despertar (BAJ) (6)


G||------------------|------------------|----------------------| 
D||------------------|------------------|----------------------| 
A||------------------|------------------|--0------0--0----0----| 
E||------------------|------------------|----------------------| 
 
 
                                                                      
----------------------|----------------------|----------------------| 
----------------------|----------------------|----------------------| 
--0------0--2----4----|--5------5--5----5----|--5------5--5----4----| 
----------------------|----------------------|----------------------| 
 
 
                                                                      
----------------------|----------------------|----------------------| 
----------------------|----------------------|----------------------| 
--0------0--0----0----|--0------0--2----4----|--5------5--5----5----| 
----------------------|----------------------|----------------------| 
 
 
                                                                      
----------------------|----------------------|----------------------| 
----------------------|----------------------|----------------------| 
--5------5--5----4----|--0------0--0----0----|--0------0--2----4----| 
----------------------|----------------------|----------------------| 
 
 
                                                                      
----------------------|----------------------|----------------------| 
----------------------|----------------------|----------------------| 
--5------5--5----5----|--5------5--5----4----|--0------0--0----0----| 
----------------------|----------------------|----------------------| 
 
 
                                                                      
----------------------|----------------------|----------------------| 
----------------------|----------------------|----------------------| 
--0------0--2----4----|--5------5--5----5----|--5------5--5----4----| 
----------------------|----------------------|----------------------| 
 
 
                                                                      
----------------------|----------------------|----------------------| 
----------------------|--4------4------------|------------7---------| 
--4------4--4----4----|------------4------4--|--5------5-------5----| 
----------------------|----------------------|----------------------| 
 
 
                                                                      
----------------------|----------------------|----------------------| 
--4------4------------|----------------------|--2------2--2----2----| 
------------4------4--|--0------0--0----0----|----------------------| 
----------------------|----------------------|----------------------| 
 
 
                                                                      
----------------------|----------------------|----------------------| 
--2------2--2----2----|----------------------|----------------------| 
----------------------|--0------0--0----0----|--0------0--2----4----| 
----------------------|----------------------|----------------------| 
 
 
                                                                      
----------------------|----------------------|----------------------| 
----------------------|----------------------|----------------------| 
--5------5--5----5----|--5------5--5----4----|--0------0--0----0----| 
----------------------|----------------------|----------------------| 
 
 
                                                                      
----------------------|----------------------|----------------------| 
----------------------|----------------------|----------------------| 
--0------0--2----4----|--5------5--5----5----|--5------5--5----4----| 
----------------------|----------------------|----------------------| 
 
 
                                                                      
----------------------|----------------------|----------------------| 
----------------------|----------------------|----------------------| 
--0------0--0----0----|--0------0--2----4----|--5------5--5----5----| 
----------------------|----------------------|----------------------| 
 
 
                                                                      
----------------------|----------------------|----------------------| 
----------------------|----------------------|----------------------| 
--5------5--5----4----|--0------0--0----0----|--0------0--2----4----| 
----------------------|----------------------|----------------------| 
 
 
                                                                      
----------------------|----------------------|----------------------| 
----------------------|----------------------|----------------------| 
--5------5--5----5----|--5------5--5----5----|--4------4--4----4----| 
----------------------|----------------------|----------------------| 
 
 
                                                                      
----------------------|----------------------|----------------------| 
--4------4------------|------------7---------|--4------4------------| 
------------4------4--|--5------5-------5----|------------4------4--| 
----------------------|----------------------|----------------------| 
 
 
                                                                      
----------------------|----------------------|----------------------| 
----------------------|--2------2--2----2----|----------------------| 
--0------0--0----0----|----------------------|--7------7--7----7----| 
----------------------|----------------------|--0------0--0----0----| 
 
 
                                                                      
----------------------|----------------------|----------------------| 
----------------------|----------------------|----------------------| 
--0------0--0----0----|--0------0--2----4----|--5------5--5----5----| 
----------------------|----------------------|----------------------| 
 
 
                                                                      
----------------------|----------------------|----------------------| 
----------------------|----------------------|----------------------| 
--5------5--5----4----|--0------0--0----0----|--0------0--2----4----| 
----------------------|----------------------|----------------------| 
 
 
                                                                      
----------------------|----------------------|----------------------| 
----------------------|----------------------|----------------------| 
--5------5--5----5----|--5------5--5----4----|--2------2--2----2----| 
----------------------|----------------------|----------------------| 
 
 
                                                                      
----------------------|----------------------|----------------------| 
----------------------|----------------------|----------------------| 
--2------2--2---------|--7------7--7---------|----------------------| 
-----------------4----|-----------------4----|--2------2--2----4----| 
 
 
                                                                      
----------------------|----------------------|----------------------| 
----------------------|----------------------|----------------------| 
--2------2--2----2----|--2------2--2---------|--7------7--7----7----| 
----------------------|-----------------4----|----------------------| 
 
 
                                                                      
----------------------|----------------------|----------------------| 
----------------------|----------------------|--6------6------------| 
--7------7--7----7----|--6------6--6----6----|------------6------6--| 
--0------0--0----0----|----------------------|----------------------| 
 
 
                                                                      
----------------------|----------------------|----------------------| 
------------9---------|--6------6------------|----------------------| 
--7------7-------7----|------------6------6--|--2------2--2----2----| 
----------------------|----------------------|----------------------| 
 
 
                                                                          
------------------------|------------------------|----------------------| 
--4---4--4-4--4----4----|--4---4--4-4--4----4----|----------------------| 
------------------------|------------------------|--6------6--6----6----| 
------------------------|------------------------|----------------------| 
 
 
                                                                      
----------------------|----------------------|----------------------| 
--6------6------------|------------9---------|--6------6------------| 
------------6------6--|--7------7-------7----|------------6------6--| 
----------------------|----------------------|----------------------| 
 
 
                                                                      
----------------------|----------------------|----------------------| 
----------------------|----------------------|--4------4--4----4----| 
--2------2--2----2----|--2------2--2----2----|----------------------| 
----------------------|----------------------|----------------------| 
 
 
                                                                
----------------------|-------------------|------------------|| 
--4------4--4----4----|-------------------|------------------|| 
----------------------|--2----------------|------------------|| 
----------------------|-------------------|------------------||

Héroes del Silencio

Este fichero es trabajo propio de su transcriptor y representa su interpretación personal de la canción. El material contenido en esta página es para exclusivo uso privado, por lo que se prohibe su reproducción o retransmisión, así como su uso para fines comerciales.



Buscar canción en YouTube Buscar cover en YouTube


Más canciones