Decadencia (TAB) (3)


intro

e/--------0-------------1-------------0---------1-----1---------/
B/----3-----3-------1-----1-------3-----3---------1-----1-------/
G/------2-----2-------3-----3-------2-----2---------3-----3-----/
D/--0-----------0-3-----------3-0-----------0-3-----------------/
A/--------------------------------------------------------------/
E/--------------------------------------------------------------/


e/--------0-------------1-1-----------0---------1-----1---------/
B/----3-----3-------1-------1-----3-----3---------1-----1-------/
G/------2-----2-------3-------3-----2-----2---------3-----3-----/
D/--0-----------0-3-------------0-----------0-3-----------------/
A/--------------------------------------------------------------/
E/--------------------------------------------------------------/


 *despues*

e/---------------------------------/
B/---------------------------------/
G/----2---0---3---2---2---2--------/  (x3)
D/--0---3---3---3---3---3---0------/
A/---------------------------------/
E/---------------------------------/

e/---------------------------------/
B/------------------3--------------/
G/--2---2---3---2-----2------------/
D/----3---3---3---3-----3-0--------/
A/---------------------------------/
E/---------------------------------/



 * si quieres toda la tablatura entera y al 100% solo escribeme * (suyua_01)

   *** por siempre heroes ***

Héroes del Silencio

Este fichero es trabajo propio de su transcriptor y representa su interpretación personal de la canción. El material contenido en esta página es para exclusivo uso privado, por lo que se prohibe su reproducción o retransmisión, así como su uso para fines comerciales.



Buscar canción en YouTube Buscar cover en YouTube


Más canciones