Días De Borrasca (TAB) (5)


                                                        
                           
guit. limpia                                                             
E||-----------------------------|--------------------------| 
B||--------------2h3h2----------|--------------------1-----| 
G||--------2--------------0-----|--------0--------3-----0--| 
D||-----2-----------------------|-----2--------2-----------| 
A||--0--------0--------0-----0--|--3--------1--------------| 
E||-----------------------------|--------------------------| 
 
 
                                                          
-----------------------------|--------------------------| 
--------------2h3h2----------|--------------------1-----| 
--------2--------------0-----|--------0--------3-----0--| 
-----2-----------------------|-----2--------2-----------| 
--0--------0--------0-----0--|--3--------1--------------| 
-----------------------------|--------------------------| 
 
 
                                                          
-----------------------------|--------------------------| 
--------------2h3h2----------|--------------------1-----| 
--------2--------------0-----|--------0--------3-----0--| 
-----2-----------------------|-----2--------2-----------| 
--0--------0--------0-----0--|--3--------1--------------| 
-----------------------------|--------------------------| 
 
 
                                                          
-----------------------------|--------------------------| 
--------------2h3h2----------|--------------------1-----| 
--------2--------------0-----|--------0--------3-----0--| 
-----2-----------------------|-----2--------2-----------| 
--0--------0--------0-----0--|--3--------1--------------| 
-----------------------------|--------------------------| 
 
 
                                                          
-----------------------------|--------------------------| 
--------------2h3h2----------|--------------------1-----| 
--------2--------------0-----|--------0--------3-----0--| 
-----2-----------------------|-----2--------2-----------| 
--0--------0--------0-----0--|--3--------1--------------| 
-----------------------------|--------------------------| 
 
 
                                                          
-----------------------------|--------------------------| 
--------------2h3h2----------|--------------------1-----| 
--------2--------------0-----|--------0--------3-----0--| 
-----2-----------------------|-----2--------2-----------| 
--0--------0--------0-----0--|--3--------1--------------| 
-----------------------------|--------------------------| 
 
 
                                                          
-----------------------------|--------------------------| 
--------------2h3h2----------|--------------------1-----| 
--------2--------------0-----|--------0--------3-----0--| 
-----2-----------------------|-----2--------2-----------| 
--0--------0--------0-----0--|--3--------1--------------| 
-----------------------------|--------------------------| 
 
 
                                                                             
-----------------------------|--------------------------|------------------| 
--------------2h3h2----------|--------------------1-----|------------------| 
--------2--------------0-----|--------0--------3-----0--|------------------| 
-----2-----------------------|-----2--------2-----------|------------------| 
--0--------0--------0-----0--|--3--------1--------------|------------------| 
-----------------------------|--------------------------|------------------| 
 
 
con distor                                                                          
------------------------------|-----------------------| 
------------------------------|-----------------------| 
------------------------------|-----------5----7------| 
--2---2-2--x-x----------------|--3---3-3--5----7------| 
--0---0-0--x-x-3h4h3h0--3h-0--|--3---3-3--3----5------| 
------------------------------|--1---1-1--------------| 
 
 
                                                        
------------------------------|-----------------------| 
------------------------------|-----------------------| 
------------------------------|--8--8--8/-8----7------| 
--2---2-2--x-x----------------|--8--8--8/-8----7------| 
--0---0-0--x-x-3h4h3h0--3h-0--|--6--6--6/-6----5------| 
------------------------------|-----------------------| 
 
 
                                                                              
------------------------------|-----------------------|---------------------| 
------------------------------|-----------------------|---------------------| 
------------------------------|-----------5-----------|---------------------| 
--2---2-2--x-x----------------|--3---3-3--5----5------|--2---2-2------------| 
--0---0-0--x-x-3h4h3h0--3h-0--|--3---3-3--3----5------|--0---0-0------------| 
------------------------------|--1---1-1-------3------|---------------------| 
 
 
                                                                                
-----------------------|------------------------------|-----------------------| 
-----------------------|------------------------------|-----------------------| 
--8--8--8/-8----7------|------------------------------|-----------5----7------| 
--8--8--8/-8----7------|--2---2-2--x-x----------------|--3---3-3--5----7------| 
--6--6--6/-6----5------|--0---0-0--x-x-3h4h3h0--3h-0--|--3---3-3--3----5------| 
-----------------------|------------------------------|--1---1-1--------------| 
 
 
                                                                              
---------------------|-----------------------|------------------------------| 
---------------------|-----------------------|------------------------------| 
---------------------|--8--8--8/-8----7------|------------------------------| 
--2---2-2------------|--8--8--8/-8----7------|--2---2-2--x-x----------------| 
--0---0-0------------|--6--6--6/-6----5------|--0---0-0--x-x-3h4h3h0--3h-0--| 
---------------------|-----------------------|------------------------------| 
 
 
                                                                       
-----------------------|---------------------|-----------------------| 
-----------------------|---------------------|-----------------------| 
-----------5-----------|---------------------|--8--8--8/-8----7------| 
--3---3-3--5----5------|--2---2-2------------|--8--8--8/-8----7------| 
--3---3-3--3----5------|--0---0-0------------|--6--6--6/-6----5------| 
--1---1-1-------3------|---------------------|-----------------------| 
 
 
solo 1                                                        
----------------------------|-------8-----------------| 
---------5--8---------------|--8b------8r-8-----------| 
--7b----------7h5---5h7h5---|------------------5h7h5--| 
------------------7-------7-|-------------------------| 
----------------------------|-------------------------| 
----------------------------|-------------------------| 
 
 
                                                                   
--5-5-5-5-5-5-5-8-10r--10h8-------|------------------------------| 
--5-5-5-5-5-5-5-------------------|--15b-15b-15b-15r---15----13--| 
----------------------------10/---|------------------------------| 
----------------------------------|------------------------------| 
----------------------------------|------------------------------| 
----------------------------------|------------------------------| 
 
 
                                                                              
------------------------------|-----------------------|---------------------| 
------------------------------|-----------------------|---------------------| 
------------------------------|-----------5-----------|---------------------| 
--2---2-2--x-x----------------|--3---3-3--5----5------|--2---2-2------------| 
--0---0-0--x-x-3h4h3h0--3h-0--|--3---3-3--3----5------|--0---0-0------------| 
------------------------------|--1---1-1-------3------|---------------------| 
 
 
                                                                                
-----------------------|------------------------------|-----------------------| 
-----------------------|------------------------------|-----------------------| 
--8--8--8/-8----7------|------------------------------|-----------5----7------| 
--8--8--8/-8----7------|--2---2-2--x-x----------------|--3---3-3--5----7------| 
--6--6--6/-6----5------|--0---0-0--x-x-3h4h3h0--3h-0--|--3---3-3--3----5------| 
-----------------------|------------------------------|--1---1-1--------------| 
 
 
                                                                              
---------------------|-----------------------|------------------------------| 
---------------------|-----------------------|------------------------------| 
---------------------|--8--8--8/-8----7------|------------------------------| 
--2---2-2------------|--8--8--8/-8----7------|--2---2-2--x-x----------------| 
--0---0-0------------|--6--6--6/-6----5------|--0---0-0--x-x-3h4h3h0--3h-0--| 
---------------------|-----------------------|------------------------------| 
 
 
                                                                       
-----------------------|---------------------|-----------------------| 
-----------------------|---------------------|-----------------------| 
-----------5-----------|---------------------|--8--8--8/-8----7------| 
--3---3-3--5----5------|--2---2-2------------|--8--8--8/-8----7------| 
--3---3-3--3----5------|--0---0-0------------|--6--6--6/-6----5------| 
--1---1-1-------3------|---------------------|-----------------------| 
 
 
                                                                              
----------------------|-------------------------|---------------------------| 
----------------------|-------------------------|---------------------------| 
--5----------5--5/-3--|-------------------------|--8---8-8--------8----8----| 
--5----------5--5/-3--|--6----6--------6---6----|--8---8-8--x-x-x-8--x-8----| 
--3----------3--3/-1--|--6----6--x-x-x-6---6----|--6---6-6--------6----6----| 
----------------------|--4----4--------4---4----|---------------------------| 
 
 
                                                                                
-----------------------------|----------------------|-------------------------| 
-----------------------------|----------------------|-------------------------| 
--8---8-8------8-8--8-8--8-8-|--5----------5--5/-3--|-------------------------| 
--8---8-8--x-x-8-8--8-8--8-8-|--5----------5--5/-3--|--6----6--------6---6----| 
--6---6-6------6-6--6-6--6-6-|--3----------3--3/-1--|--6----6--x-x-x-6---6----| 
-----------------------------|----------------------|--4----4--------4---4----| 
 
 
                                                                       
------------------------------------------|--------------------------| 
------------------------------------------|--------------------------| 
--10---10-10--10-10-10-10--10-10-10-10-10-|--10----10----10----10----| 
--10---10-10--10-10-10-10--10-10-10-10-10-|--10----10----10----10----| 
--8----8--8---8--8--8--8---8--8--8--8--8--|--8-----8-----8-----8-----| 
------------------------------------------|--------------------------| 
 
 
puente                                                                       
----------------------------------|----------------------------------| 
----------------------------------|----------------------------------| 
----------------------------------|----------------------------------| 
----------7-6-5-----------7-6-5---|----------7-6-5-----------7-6-5---| 
--5-5-5-5-------8-5-5-5-5-------8-|--5-5-5-5-------8-5-5-5-5-------8-| 
----------------------------------|----------------------------------| 
 
 
                                                        
----------------------|-------------------------------| 
-------1---1---1------|-------------------------------| 
--3----3---3---3------|---------3h2---5h2---3h2---2h3-| 
--1----1---1---1------|--3----3-----3-----3-----3-----| 
----------------------|--3----3-----------------------| 
----------------------|-------------------------------| 
 
 
                                                                       
----------------------------------|----------------------------------| 
----------------------------------|----------------------------------| 
----------------------------------|----------------------------------| 
----------7-6-5-----------7-6-5---|----------7-6-5-----------7-6-5---| 
--5-5-5-5-------8-5-5-5-5-------8-|--5-5-5-5-------8-5-5-5-5-------8-| 
----------------------------------|----------------------------------| 
 
 
                                                       
-----------------------|-----------------------------| 
-----------------------|-----------------------------| 
--3----3-----3--3-3----|--2----2h3h2---5h2---3h2--3--| 
--1----1-----1--1-1----|--3----3-----3-----3---------| 
-----------------------|-----------------------------| 
-----------------------|-----------------------------| 
 
 
                                                           
----------------------------|----------------------------| 
----------------------------|----------------------------| 
--3----3h2---2h3----3h2---2-|--3----3h2---2-3----3h2---2-| 
--1----1---1---1----1---1---|--1----1---1---1----1---1---| 
----------------------------|----------------------------| 
----------------------------|----------------------------| 
 
 
                                                           
----------------------------|----------------------------| 
----------------------------|----------------------------| 
--7----7h5---5-7----7h5---5-|--7----7h5---5-7----7h5---5-| 
--5----5---8---5----5---8---|--5----5---8---5----5---8---| 
----------------------------|----------------------------| 
----------------------------|----------------------------| 
 
 
                                                           
----------------------------|----------------------------| 
----------------------------|----------------------------| 
--3----3h2---2-3----3h2---2-|--3----3h2---2-3----3h2---2-| 
--1----1---1---1----1---1---|--1----1---1---1----1---1---| 
----------------------------|----------------------------| 
----------------------------|----------------------------| 
 
 
                                                                            
------------------------|-----------------------|-------------------------| 
------------------------|-----------------------|--6----6----5h6--6--6h5--| 
--7----7---7--7---7--5--|--3----3---3--3---3----|--5----5----5h5--5--5h5--| 
--7----7---7--7---7--5--|--3----3---3--3---3----|--3----3----3h3--3-------| 
--5----5---5--5---5--3--|--1----1---1--1---1----|-------------------------| 
------------------------|-----------------------|-------------------------| 
 
 
                                                                            
-------------------------|------------------------|-----------------------| 
--6----6----5h6--6--6h5--|------------------------|-----------------------| 
--5----5----5h5--5--5h5--|--7----7---7--7---7--5--|--3----3---3--3---3----| 
--3----3----3h3--3-------|--7----7---7--7---7--5--|--3----3---3--3---3----| 
-------------------------|--5----5---5--5---5--3--|--1----1---1--1---1----| 
-------------------------|------------------------|-----------------------| 
 
 
                                                solo principal                              
-----------------------|-----------------------|----------------------------| 
--8----8-----8--8-8----|--8----8-----8--8-8----|----------------------------| 
--7----7-----7--7-7----|--7----7-----7--7-7----|--------x-x-7r7-5-----------| 
--5----5-----5--5-5----|--5----5-----5--5-5----|------------------7-6-5-----| 
-----------------------|-----------------------|------------------------5/3-| 
-----------------------|-----------------------|----------------------------| 
 
 
                                                                    
------------------|----------------------------|------------------| 
------------------|----------------------------|------------------| 
------------------|----------------------------|------------------| 
------------------|----------7h5---------------|------------------| 
------------------|--------7-----7h5-3-5-3-5/7-|------------------| 
------------------|----------------------------|------------------| 
 
 
                                                                                
-----------------------------------|-------------------8-10h10r10h8-10h8------| 
-------------5b5h8h5-----5h8h5---5-|--10---10-8---8-10-------------------10h8-| 
---------7h7---------7h7b------7b--|------------9-----------------------------| 
-----------------------------------|------------------------------------------| 
-----------------------------------|------------------------------------------| 
-----------------------------------|------------------------------------------| 
 
 
                                                                   
-------------------------------------|---------------------------| 
--10~--------10-8-7------------------|---------------------11h10-| 
-----------9---------9h10h9h8h7----7-|--8--8--8--8----7----------| 
--------------------------------10---|--8--8--8--8----7----------| 
-------------------------------------|--6--6--6--6----5----------| 
-------------------------------------|---------------------------| 
 
 
                                                      
----------------------12-15-14h12----12-------------| 
--10---10-13h10-10-10-------------15----15r15h13----| 
-------------------------------------------------14-| 
----------------------------------------------------| 
----------------------------------------------------| 
----------------------------------------------------| 
 
 
                                                                                 
----------13----12----10-----------------------|-------------------------------| 
----------------------------13-----------------|-------------------------------| 
--10---10----10----10----10----10-12-10h9------|---------------------5-7-5-7-5-| 
------------------------------------------10h9-|--7~-------------5-7-----------| 
-----------------------------------------------|-------------3/7---------------| 
-----------------------------------------------|-------5-3-5-------------------| 
 
 
                                                                
-----------------------|-----5--------5--------5--------5---5-| 
-----------------------|-------8h5------8h5------8h5------8---| 
--8--8--8/-8----7------|--7b-------7b-------7b-------7b-------| 
--8--8--8/-8----7------|--------------------------------------| 
--6--6--6/-6----5------|--------------------------------------| 
-----------------------|--------------------------------------| 
 
 
                                                                          
--8--8--8h5---5---------------------|---------------------------------8-| 
------------8---8-5-----------------|----------------------------8-10---| 
--------------------7-5-7-5-7-7r7h5-|--------5---5-7-7r7h5---5/9--------| 
------------------------------------|--7---7---7-----------7------------| 
------------------------------------|-----------------------------------| 
------------------------------------|-----------------------------------| 
 
 
                                                            
--10h8----8-----------------------------------------------| 
-------10---10h8-10h8/7-8h7---7---------------------------| 
----------------------------7---9h7-9h7----7--------------| 
----------------------------------------10---10h7-10h7-10-| 
----------------------------------------------------------| 
----------------------------------------------------------| 
 
 
                                                                              
----------------------|-------------------------|---------------------------| 
----------------------|-------------------------|---------------------------| 
--5----------5--5/-3--|-------------------------|--8---8-8--------8----8----| 
--5----------5--5/-3--|--6----6--------6---6----|--8---8-8--x-x-x-8--x-8----| 
--3----------3--3/-1--|--6----6--x-x-x-6---6----|--6---6-6--------6----6----| 
----------------------|--4----4--------4---4----|---------------------------| 
 
 
                                                                                
-----------------------------|----------------------|-------------------------| 
-----------------------------|----------------------|-------------------------| 
--8---8-8------8-8--8-8--8-8-|--5----------5--5/-3--|-------------------------| 
--8---8-8--x-x-8-8--8-8--8-8-|--5----------5--5/-3--|--6----6--------6---6----| 
--6---6-6------6-6--6-6--6-6-|--3----------3--3/-1--|--6----6--x-x-x-6---6----| 
-----------------------------|----------------------|--4----4--------4---4----| 
 
 
                                                                       
------------------------------------------|--------------------------| 
------------------------------------------|--------------------------| 
--10---10-10--10-10-10-10--10-10-10-10-10-|--10----10----10----10----| 
--10---10-10--10-10-10-10--10-10-10-10-10-|--10----10----10----10----| 
--8----8--8---8--8--8--8---8--8--8--8--8--|--8-----8-----8-----8-----| 
------------------------------------------|--------------------------| 
 
 
                                                                              
----------------------|-------------------------|---------------------------| 
----------------------|-------------------------|---------------------------| 
--5----------5--5/-3--|-------------------------|--8---8-8--------8----8----| 
--5----------5--5/-3--|--6----6--------6---6----|--8---8-8--x-x-x-8--x-8----| 
--3----------3--3/-1--|--6----6--x-x-x-6---6----|--6---6-6--------6----6----| 
----------------------|--4----4--------4---4----|---------------------------| 
 
 
                                                                                
-----------------------------|----------------------|-------------------------| 
-----------------------------|----------------------|-------------------------| 
--8---8-8------8-8--8-8--8-8-|--5----------5--5/-3--|-------------------------| 
--8---8-8--x-x-8-8--8-8--8-8-|--5----------5--5/-3--|--6----6--------6---6----| 
--6---6-6------6-6--6-6--6-6-|--3----------3--3/-1--|--6----6--x-x-x-6---6----| 
-----------------------------|----------------------|--4----4--------4---4----| 
 
 
                                                                       
------------------------------------------|--------------------------| 
------------------------------------------|--------------------------| 
--10---10-10--10-10-10-10--10-10-10-10-10-|--10----10----10----10----| 
--10---10-10--10-10-10-10--10-10-10-10-10-|--10----10----10----10----| 
--8----8--8---8--8--8--8---8--8--8--8--8--|--8-----8-----8-----8-----| 
------------------------------------------|--------------------------| 
 
 
                                                                          
------------------------|----------------------|------------------------| 
------------------------|----------------------|------------------------| 
------------------------|------8-8-8------7----|------------------------| 
------7-7-7------7-7-7--|------8-8-8------7----|------7-7-7------7-7-7--| 
------7-7-7------7-7-7--|------6-6-6------5----|------7-7-7------7-7-7--| 
------5-5-5------5-5-5--|----------------------|------5-5-5------5-5-5--| 
 
 
                                                                        
----------------------|------------------------|----------------------| 
----------------------|------------------------|----------------------| 
------8-8-8------7----|------------------------|------8-8-8------7----| 
------8-8-8------7----|------7-7-7------7-7-7--|------8-8-8------7----| 
------6-6-6------5----|------7-7-7------7-7-7--|------6-6-6------5----| 
----------------------|------5-5-5------5-5-5--|----------------------| 
 
 
                                                                       
------------------------|------------------------|-------------------| 
------------------------|------------------------|-------------------| 
------------------------|------8-8-8------8-8-8/-|--2----------------| 
------7-7-7------7-7-7--|------8-8-8------8-8-8/-|--2----------------| 
------7-7-7------7-7-7--|------6-6-6------6-6-6/-|--0----------------| 
------5-5-5------5-5-5--|------------------------|-------------------| 
 
 
 
                                                                             
-----------------------------|--------------------------| 
--------------2h3h2----------|--------------------1-----| 
--------2--------------0-----|--------0--------3-----0--| 
-----2-----------------------|-----2--------2-----------| 
--0--------0--------0-----0--|--3--------1--------------| 
-----------------------------|--------------------------| 
 
 
                                                          
-----------------------------|--------------------------| 
--------------2h3h2----------|--------------------1-----| 
--------2--------------0-----|--------0--------3-----0--| 
-----2-----------------------|-----2--------2-----------| 
--0--------0--------0-----0--|--3--------1--------------| 
-----------------------------|--------------------------| 
 
 
                                                          
-----------------------------|--------------------------| 
--------------2h3h2----------|--------------------1-----| 
--------2--------------0-----|--------0--------3-----0--| 
-----2-----------------------|-----2--------2-----------| 
--0--------0--------0-----0--|--3--------1--------------| 
-----------------------------|--------------------------| 
 
 
                                                          
-----------------------------|--------------------------| 
--------------2h3h2----------|--------------------1-----| 
--------2--------------0-----|--------0--------3-----0--| 
-----2-----------------------|-----2--------2-----------| 
--0--------0--------0-----0--|--3--------1--------------| 
-----------------------------|--------------------------| 
 
 
                                                          
-----------------------------|--------------------------| 
--------------2h3h2----------|--------------------1-----| 
--------2--------------0-----|--------0--------3-----0--| 
-----2-----------------------|-----2--------2-----------| 
--0--------0--------0-----0--|--3--------1--------------| 
-----------------------------|--------------------------| 
 
 
                                                          
-----------------------------|--------------------------| 
--------------2h3h2----------|--------------------1-----| 
--------2--------------0-----|--------0--------3-----0--| 
-----2-----------------------|-----2--------2-----------| 
--0--------0--------0-----0--|--3--------1--------------| 
-----------------------------|--------------------------| 
 
 
                                                                             
-----------------------------|-------------------------|----0--------------| 
--------------2h3h2----------|----------------------1--|-------------------| 
--------2--------------0-----|--------0--------3-------|-------------------| 
-----2-----------------------|-----2--------2----------|-------------------| 
--0--------0--------0-----0--|--3--------1-------------|-------------------| 
-----------------------------|-------------------------|-------------------| 
 
 
                     
------------------|| 
------------------|| 
------------------|| 
------------------|| 
------------------|| 
------------------||

Héroes del Silencio

Este fichero es trabajo propio de su transcriptor y representa su interpretación personal de la canción. El material contenido en esta página es para exclusivo uso privado, por lo que se prohibe su reproducción o retransmisión, así como su uso para fines comerciales.



Buscar canción en YouTube Buscar cover en YouTube


Más canciones