Acústica 1993 (BAJ) (2)


Esta es, segun yo, la estructura de la cancion, espero 
le entiendan, ya que como no hay letra van a tener que 
seguirlo asi. 
 
 
 
RIFF1 
G: ----------3 VECES------------------------- 
D: -5-5------------------5-5--------5-5------ 
A: -----5-5--5--5-5-----------3-3--------5-5- 
E: ------------------------------------------ 
 
 
RIFF2 
G: --------------------------------------------------------------- 
D: ----3/5------------1/2--0-0--------3/5--------5-5-----5 5------ 
A: --------5-5-----------------------------5-5-------3-3------5-5- 
E: -3------------3-3------------3-3------------------------------- 
 
 
RIFF3 
G: ------------------------------------------ 
D: --------3-VECES------5-5------5-5--------- 
A: ------------5-5----------3-3------5-5----- 
E: -5-5---3-3-------------------------------- 
 
 
RIFF4 
G: ------4-5-4-2-0---------------------------------------  
D: -5*7------------3--3-2-0------------------*=LIGADO---- 
A: --------------------------3-2-0----------------------- 
E: ----------------------------------5-5-0--0-5-5--0-5-5- 
 
 
ESTRUCTURA: 
RIFF1 
RIFF2  X2 
RIFF3 
RIFF4 
RIFF1  X2 
RIFF2  X2 
RIFF3 
RIFF4 
RIFF3 
 
 
Pues creo que eso es todo, espero sea lo que busquen. 
Con todo cariño para mi niña preciosa, E
        E        
lizabeth.

Héroes del Silencio

Este fichero es trabajo propio de su transcriptor y representa su interpretación personal de la canción. El material contenido en esta página es para exclusivo uso privado, por lo que se prohibe su reproducción o retransmisión, así como su uso para fines comerciales.



Buscar canción en YouTube Buscar cover en YouTube


Más canciones