La que se fue (TAB) (3)


Intro: 
|-----------3-5-3------3------2-----5----8----11-| 
|---------3------6-3---3-----1-----4----7----10--| 
|-------3-----------3--3----2-----5----8----11---| 
|-----3----------------3---1-----4----7----10----| 
|---3------------------3-------------------------| 
|-3--------------------3-------------------------| 
 
                          y que me traigan mas botellas 
|-----------3-5-3------3--------------------------------3-----| 
|---------3------6-3---3-------------------------------4-4-4--| 
|-------3-----------3--3------------------------------5---5---| 
|-----3----------------3-----------------------------5--------| 
|---3------------------3----------------------------3---------| 
|-3--------------------3--------------------------------------| 
 
    para quitarme este sabor de su sudor 
|-------------2-------2-------------3-5-3------3--| 
|----------1-----1------1---------3------6-3---3--| 
|-------2-----------2-----------3-----------3--3--| 
|----0------------------------3----------------3--| 
|-0-------------------------3------------------3--| 
|-------------------------3--------------------3--| 
 
  y que me apunten en la cuenta,              toda la desgracia que dejo 
|-----------------------------------3--------------0----0-------------------2| 
|---------------------------------4---4---4-------2--2----2----------------1-| 
|-------------------------------5-------5--------0-----0----0-------------2--| 
|-----------------------------5-----------------2------------------------0---| 
|---------------------------3------------------0-----------------------0-----| 
|----------------------------------------------------------------------------| 
 
|---3--5---6----------| 
|---------------------| 
|--3--5---7-----------| 
|---------------------| 
|---------------------| 
|---------------------| 
 
SOLO 1: G
        G        
uitarra A
        A        
custica |--10-10-10-10-11-11-------10-10-----------------------| |--------------------13-13--------11-11-13-13-12-12----| |------------------------------------------------------| |------------------------------------------------------| |------------------------------------------------------| |------------------------------------------------------| |------------------| |--11---11---11----| |--12---12---12----| |------------------| |------------------| |------------------| | rapido--------------| |--13-13-13-13--13-13-13-13--13-13-13--11-10-10p11-11-| |-----------------------------------------------------| |-----------------------------------------------------| |-----------------------------------------------------| |-----------------------------------------------------| |-----------------------------------------------------| |-------------13-13-------------------------------| |-13-13-13-13-------10-10-13-13-------10-10-------| |--------------------------------10-10------------| |-------------------------------------------------| |-------------------------------------------------| |-------------------------------------------------| |-Rapido-------| |-13-13-13-13-11-10-------11--11-------| |-------------------13-----------------| |-----------------------11--11---------| |--------------------------------------| |--------------------------------------| |--------------------------------------| |-10--11--10--8--6--5--3---------------| |--------------------------------------| |-11--11--11--8--7--5--3---------------| |--------------------------------------| |--------------------------------------| |--------------------------------------| SOLO 2: G
        G        
uitarra E
        E        
lectrica |-----------------------| |-----------------------| |-------7-7--7----------| |--8-10--------10-8-----| |-----------------------| |-----------------------| |---------------------------| |---------------------------| |-------7-8--8-8-7----------| |--8-10------------10-10----| |---------------------------| |---------------------------| |------------------------------------------| |--10-11-13-11-11-11-10-10-10--------------| |-----------------------------12-12-12-10--| |------------------------------------------| |------------------------------------------| |------------------------------------------| |------------------------------------------| |--11-11-10-10-10--------------------------| |-----------------12-12-12-10-10-10--------| |------------------------------------------| |------------------------------------------| |------------------------------------------| |--------------10----10-------10--10------| |--10-11-1113----13----13-11--------------| |------------------------------------------| |------------------------------------------| |------------------------------------------| |------------------------------------------|

 E
        E        
lefante

Este fichero es trabajo propio de su transcriptor y representa su interpretación personal de la canción. El material contenido en esta página es para exclusivo uso privado, por lo que se prohibe su reproducción o retransmisión, así como su uso para fines comerciales.