De la noche a la mañana (TAB) (3)


solo quiero decirles, que esta transcripción es la unica que se parece a la original, las  
otras realmente son una porqueria, ni siquiera el ritmo llevan, 
ademas creo que esta transcripción es la #1 por eso la envio,  
y no soy como aquel, tipo que  
dice que su transcrición es la correcta o que eso cree, amigo tu transcripción  
es basura(je je).  
Ahi les va el intro: 
 
e|-------1------1-------3--5--3-------3----1----0----0---1--0----| 
b|-----3---3----------3---------3--5----3-----1---1--1---3--1--3-| 
g|---2-------2------4------------------------------------------2-| 
d|-0--------------5----------------------------------------------| 
a|---------------------------------------------------------------| 
E|---------------------------------------------------------------| 
 
 
|-------1------1-------3---5---3-------10-----8-----7---7-----5-| 
|-----3---3----------3-----------3--12-----10----8----8----8----| 
|---2-------2------4--------------------------------------------| 
|-0--------------5----------------------------------------------| 
|---------------------------------------------------------------| 
|---------------------------------------------------------------| 
 
 
el bajeo es muy sencillo y durante este se tocan las notas Dm
       Dm       
G
        G        
, Dm
       Dm       
  escuchen bien la canción, claro que lleva guitarra en el solo del bajo: g|-----------------------------------------------------------------------| d|-----------------------------------------------------------------------| a|----3--5----3--5---3--5----3--5-----3---5-----3---7---7--3--5-----3--5-| E|--5-------5------5-------5-------5---------5--------------------5------|

 E
        E        
lefante

Este fichero es trabajo propio de su transcriptor y representa su interpretación personal de la canción. El material contenido en esta página es para exclusivo uso privado, por lo que se prohibe su reproducción o retransmisión, así como su uso para fines comerciales.