Beatriz (TAB) (3)


    INTRO:

6|---------------0--------------0----------------------0-----------------------
5|------3---------3--------------3----------------------3----------------------
4|------------------3--------------2----------------------3--------------------
3|---0----------------2--------------0-------0--------------2------------------
2|------2---------------1--------------3--------2-------------1--------17------
1|---------3--------------0--------------3---------3------------0--------17----

deja ke la casa se caiga, ke se keme la sopa.....
6|--3--------------------------0-----------------------------
5|---3--------------------------3----------------------------
4|----2--------------------------3---------------------------
3|-----0----0-----0---0-----------2----2-----2---2-----------
2|------1-----1-----1--------------1-----1-----1-------------
1|-------0------3-------------------0------3-----------------

...y ke el mundo se haga pelotas.....
6|--3----------------------------0---------------------------
5|---3----------------------------3--------------------------
4|----2----------------------------3-------------------------
3|-----0-----0----------------------2----2------2---2--------
2|------1------1--3------------------1-----1------1----------
1|-------0---------------0------------0------3---------------

pero no te kedes callada, ni te sientas esclava....
6|--3------------------------------0-------------------------
5|---3------------------------------3------------------------
4|----2------------------------------3-----------------------
3|-----0------0-----------------------2----2------2---2------
2|------1-------1--3-------------------1-----1------1--------
1|-------0----------------0-------------0------3-------------

...cenicienta es un cuento de hadas y tu eres.....
6|--3-------------------------------0------------------------
5|---3-------------------------------3-----------------------
4|----2-------------------------------3----------------------
3|-----0-------0-----------------------2----2------2---2-----
2|------1--------1--3-------------------1-----1------1-------
1|-------0-----------------0-------------0------3------------

  mi princesa....mi rikeza....mi libertad....
6|--0---------------------0---------------------0------------------------------
5|---0---------------------2---------------------3-----------------------------
4|----2---------------------2---------------------3----------------------------
3|-----2----2-----2---2------0----0-----0---0------2----2-----2---2------------
2|------1-----1-----1---------0-----0-----0---------1-----1-----1--------------
1|-------0------3--------------0------0--------------0------0------------------

   .............asi ke deja ya la mesa, de kabeza....
6|--3-----------------------0-------------------0------------------------------
5|---2-----------------------0-------------------2-----------------------------
4|----0-----------------------2-------------------2----------------------------
3|-----0----0------0---0-------2---2-----2---2-----0----0------0---0-----------
2|------1-----1------1----------1----1-----1--------0-----0------0-------------
1|-------3------3----------------0-----3-------------0------3------------------

  y besame como antes .......... y tratame como amante.....
6|--3--------------------3--------------------0---------------------0--------------------------
5|---3--------------------2--------------------0---------------------3-------------------------
4|----2--------------------0--------------------2---------------------3------------------------
3|-----0----0-----0---0-----0----0-----0---0-----2----2-----2---2------2---2-----2---2---------
2|------1-----1-----1--------1-----1-----1--------1-----1-----1---------1----1-----1-----------
1|-------0------3-------------3------3-------------0------3--------------0-----0---------------

 ... y deja ke elmundo se akabe.........
6|--3---------------------3----------------------0--------------------0------------------------
5|---3---------------------2----------------------0--------------------3-----------------------
4|----2---------------------0----------------------2--------------------3----------------------
3|-----0----0-----0---0------0----0-----0---0-------2----2-----2---2-----2----2-----2---2------
2|------1-----1-----1---------1-----1-----1----------1-----1-----1--------1-----1-----1--------
1|-------0------3--------------3------3---------------0------0-------------0------0------------


  y subeme a las estrellas ...... y bajame a donde kieras.....
6|--3--------------------3--------------------0---------------------0--------------------------
5|---3--------------------2--------------------0---------------------3-------------------------
4|----2--------------------0--------------------2---------------------3------------------------
3|-----0----0-----0---0-----0----0-----0---0-----2----2-----2---2------2---2-----2---2---------
2|------1-----1-----1--------1-----1-----1--------1-----1-----1---------1----1-----1-----------
1|-------0------3-------------3------3-------------0------3--------------0-----0---------------

 ... y sueña ke estas en Madrid ....
6|--3---------------------3----------------------0----------------------0--------
5|---3---------------------2----------------------0----------------------3-------
4|----2---------------------0----------------------2----------------------3------
3|-----0----0-----0---0------0----0-----0---0-------2----2------2---2------2-----
2|------1-----1-----1---------1-----1-----1----------1-----1------1---------1----
1|-------0------3--------------3------3---------------0------0---------------0---


            C
        C        
deja ke la ropa se arrugue  FA
       FA       
+7/C
        C        
  ke la gente murmure  C
        C        
 FA
       FA       
+7/C
        C        
  ke eres una desobligada  C
        C        
ke ya no pareces kasada  FA
       FA       
+7/C
        C        
  ke kambio tu mirada  C
        C        
 FA
       FA       
+7/C
        C        
  cenicienta es un cuento de hadas Am
       Am       
  y tu eres mi princesa Em
       Em       
   FA
       FA       
+7/C
        C        
  Gsus
       Gsus       
5 mi rikeza, mi libertad Am
       Am       
  asi ke deja ya la mesa Em
       Em       
  de cabeza  C
        C        
 Gsus
       Gsus       
5 Y besame como antes Am
       Am       
   FA
       FA       
+7/C
        C        
  y tratame como amante  C
        C        
 Gsus
       Gsus       
5 Am
       Am       
   FA
       FA       
+7/C
        C        
  y deja ke el mundo se acabe ohhhhh  C
        C        
 Gsus
       Gsus       
5 Y subeme a las estrellas Am
       Am       
   FA
       FA       
+7/C
        C        
  y bajame a donde kieras  C
        C        
 Gsus
       Gsus       
5 Am
       Am       
   FA
       FA       
+7/C
        C        
  y sueña ke estas en Madrid  C
        C        
 Gsus
       Gsus       
5 Am
       Am       
   FA
       FA       
+7/C
        C        
  Beatriiiizz ohhhhhoooo  C
        C        
 Gsus
       Gsus       
5 Am
       Am       
   FA
       FA       
+7/C
        C        
  Beatriiiiiz ohoooooooohhooo  C
        C        
 Gsus
       Gsus       
5 Am
       Am       
   FA
       FA       
+7/C
        C        
   C
        C        
 Gsus
       Gsus       
5 Am
       Am       
   FA
       FA       
+7/C
        C        
  ...deja ke la casa se caiga .... 6|--3--------------------------0----------------------------------------- 5|---3--------------------------3---------------------------------------- 4|----2--------------------------3--------------------------------------- 3|-----0----0-----0---0-----------2----2-----2---2----------------------- 2|------1-----1-----1--------------1-----1-----1------------------------- 1|-------0------3-------------------0------3----------------------------- 6|--3----------------------------0-------------------------3-------------- 5|---3----------------------------3-------------------------3------------- 4|----2----------------------------3-------------------------2------------ 3|-----0-----0----------------------2----2------2---2---------0----------- 2|------1------1--3------------------1-----1------1------------1---------- 1|-------0---------------0------------0------3------------------0--------- FIIIIIIINNNNN, B
        B        
UENO, A
        A        
KI E
        E        
STA
        A        
 LA
       LA       
 ROLA, E
        E        
SPERO KE
        E        
 LA
       LA       
 PONGAN POR KE
        E        
 SUBI OTRA D
        D        
E
        E        
LEFANTE
        E        
  PERO NO E
        E        
STA, YA
        A        
 VA A
        A        
HACER C
        C        
ASI
       SI       
 UN MES, Y SI
       SI       
 ESTAN LEYENDO
       DO       
 ESTO, PUES KIERE
       RE       
 DECIR KE
        E        
 SI
       SI       
 LA
       LA       
 SUBIERON LOS D
        D        
EL A
        A        
TAME, SI
       SI       
 NO, YA
        A        
 NO C
        C        
OLABORARE, POR KE
        E        
 KOMO KE
        E        
 SE D
        D        
ESANIMA
        A        
 UNO NO C
        C        
REEN?.BUENO, D
        D        
EDICATORIAS....MMMM...ESTA C
        C        
ANCION ME RE
       RE       
CUERDA A
        A        
MI
       MI       
 EX, POR QUE E
        E        
N LUGAR D
        D        
E
        E        
  DECIR B
        B        
EATRIZ, YO D
        D        
IGO: 'SARAHIIIIII'.......JAJAJA, PERO NO C
        C        
REO KE
        E        
 SE
        E        
 ACUERDE D
        D        
MI
       MI       
. DUDAS, C
        C        
OMENTARIOS, MENTADAS, INVITACIONES A
        A        
SALIR, C
        C        
HISTES, A
        A        
NECDOTAS, C
        C        
ITAS, E
        E        
TC, A
        A        
MI
       MI       
  CORREO. ,SI
       SI       
 TIENEN UNA A
        A        
MIGA, PRESENTENMELA, POR QUE
        E        
 ANDO
       DO       
 BUSCANDO
       DO       
 NOVIA, JEJEJE
        E        
  SALUDOS A
        A        
POZA
        A        
 RICA, VER...SALE, SE C
        C        
UIDAN, HOY E
        E        
S 5 D
        D        
E
        E        
 AGOSTO D
        D        
E
        E        
 2004, Y SON E
        E        
XACTAMENTE
        E        
  LAS 12:47 , LO PONGO PARA
        A        
 VER C
        C        
UANTO SE
        E        
 TARDAN E
        E        
N SUBIR UNA C
        C        
ANCION, /(SI
       SI       
 ES KE
        E        
 LA
       LA       
 SUBEN) SUERTE
        E        
 ;)

 E
        E        
lefante

Este fichero es trabajo propio de su transcriptor y representa su interpretación personal de la canción. El material contenido en esta página es para exclusivo uso privado, por lo que se prohibe su reproducción o retransmisión, así como su uso para fines comerciales.