Angel platonico (TAB)


hola!

para mi platónico es una de las mejores canciones de esta banda...
ya hay una transcripción, pero para mi concepto, es erronea
aqui esta la forma correcta de tocarla...

suerte..

este es el intro y todas las estrofas...
e|------------------------------------------|
B|------------------------------------------|
G|------0------0-------------0-------0------|
D|----4-----4----4--------5-------5-----5---|
A|--5-----5--------5---3-------3----------3-|
E|------------------------------------------|

e|------------------------------------------|
B|------------------------------------------|
G|------0------0-------------0-------0------|
D|----4-----4----4--------5-------5-----5---|
A|--5-----5--------5---3-------3----------3-|
E|------------------------------------------|

e|---------------------------------------------------------0-------|
B|----------------------------------------1-------------3----3---3-|
G|-------------------------------------------0--------0---0----0---|
D|--------5--------5---------------3-----------3-------------------|
A|-----5--------5-----5---------3-----3-----------3-3--------------|
E|--3--------3-----------3---1-------------------------------------|

e|---------0--------|
B|-----3-----3---3--|
G|---0---0-----0----|
D|------------------|Aqui vuelve a comenzar!!
A|-3----------------|
E|------------------|


esto es el B
        B        
RIDGE
        E        
 o sea (y empezo a amar.....) e|---------------------------------------------------| B|-----3----3------------3----3---------0---0--------| G|-------4----4---4--------4---4---4------0---0---0--| D|--5------5----5-----4------4---4----2-----2---2----| A|---------------------------------------------------| E|---------------------------------------------------| e|--------------------------| B|------3-----3-------------| G|----2-----2---2-----------| D|--0-----0-------0---------|Haces el bridge dos veces.. A|--------------------------| E|--------------------------| al acabarse el bridge, termians con este acorde... e|--0----| B|--3----| G|--0----| D|--2----| A|--3----| E|-------| el coro consta va rasgado y consta de tres acordes q son G, D
        D        
Em
       Em       
. y eso es todo... suerte....

Los de A
        A        
dentro

Este fichero es trabajo propio de su transcriptor y representa su interpretación personal de la canción. El material contenido en esta página es para exclusivo uso privado, por lo que se prohibe su reproducción o retransmisión, así como su uso para fines comerciales.