Cha La



E|---------------------------------------------------1----------------------------
B|-------------------------------1-1-------------1-1------------------------------
G|-----------------3h2--------------3h2-------------3-----------------------------
D|--------------------3----------------------------1---1---1---1------------------
A|--------------------------------------------------------------------------------
E|-1---1---1---1---1---1---1---1---1---1---1---1----------------------------------


E|--------------------------------------------------------------------------------
B|---------------------------------1-2---------2-4---1---------1-1----------------
G|-------------0-1---------3------------------------------------------------------
D|-1---1---1---1------------------------------------------------------------------
A|-----------------4---4---4---4---4---4---4---4-------------------3---3---3---3--
E|-------------------------------------------------4---4---4---4------------------


E|---------------------------------------------------1----------------------------
B|-------------------------------1-1-------------1-1------------------------------
G|-----------------3h2--------------3h2-------------3-----------------------------
D|--------------------3----------------------------1---1---1---1------------------
A|--------------------------------------------------------------------------------
E|-1---1---1---1---1---1---1---1---1---1---1---1----------------------------------


E|-----------------------------------------------------------------------------
B|---------------------------------1-2---------2-2---1-------------------------
G|-------------0-1---------3---------------------------------------------------
D|-1---1---1---1---------------------------------------------------------------
A|-----------------4---4---4---4---4---4---4---4--3---3---3---3---3---3---3---3
E|-----------------------------------------------------------------------------


E|-----------------------------------------------------------
B|-3-------------3-------------------------------------------
G|-----------2-----5-----3-2-0--3-----------2-2--------------
D|-0---0---0---0---2---2-------------------------------------
A|-----------------------------------------------------------
E|------------------------------1---1---1---1---1---1---1---1 (2x)


E|------------------------------------------------------------------3-3-----
B|------------------------------------------------------------------5-5-----
G|---------3h2---3---2----------------------3h2--3---2----------------------
D|-1---1---1---3---1---3---1---1---------------3-------3--------------------
A|---------------------------------5---5---5---5---5---5---5---5-5--3-3-----
E|--------------------------------------------------------------------------


Dragonball Z
(Guitar chords, ukelele, keyboard, tabs, bass, drums and lyrics)

Este fichero es trabajo propio de su transcriptor y representa su interpretación personal de la canción. El material contenido en esta página es para exclusivo uso privado, por lo que se prohibe su reproducción o retransmisión, así como su uso para fines comerciales.